ISO-10303-21;
HEADER;
/* Generated by software containing ST-Developer
 * from STEP Tools, Inc. (www.steptools.com) 
 */

FILE_DESCRIPTION(
/* description */ ('\X2\0161\X0\roub s int. podlo\X2\017E\X0\kou, ISO 
7380'),
/* implementation_level */ '2;1');

FILE_NAME(
/* name */ 
'D:\\Work\\Zakazky\\2013\\AlutecKK\\stp\\Srouby\\ISO7380int\\200610-2.
stp',
/* time_stamp */ '2013-12-06T07:48:01+01:00',
/* author */ ('PC'),
/* organization */ (''),
/* preprocessor_version */ 'ST-DEVELOPER v15.2',
/* originating_system */ 'Autodesk Inventor 2014',
/* authorisation */ '');

FILE_SCHEMA (('AUTOMOTIVE_DESIGN { 1 0 10303 214 3 1 1 }'));
ENDSEC;

DATA;
#10=SHAPE_REPRESENTATION_RELATIONSHIP('SRR','None',#423,#11);
#11=ADVANCED_BREP_SHAPE_REPRESENTATION($,(#241),#414);
#12=STYLED_ITEM($,(#431),#241);
#13=(
BOUNDED_CURVE()
B_SPLINE_CURVE(2,(#379,#380,#381),.UNSPECIFIED.,.F.,.F.)
B_SPLINE_CURVE_WITH_KNOTS((3,3),(0.,0.233687227615585),.UNSPECIFIED.)
CURVE()
GEOMETRIC_REPRESENTATION_ITEM()
RATIONAL_B_SPLINE_CURVE((1.,1.15470053837925,1.))
REPRESENTATION_ITEM($)
);
#14=(
BOUNDED_CURVE()
B_SPLINE_CURVE(2,(#386,#387,#388),.UNSPECIFIED.,.F.,.F.)
B_SPLINE_CURVE_WITH_KNOTS((3,3),(0.,0.233687227615585),.UNSPECIFIED.)
CURVE()
GEOMETRIC_REPRESENTATION_ITEM()
RATIONAL_B_SPLINE_CURVE((1.,1.15470053837925,1.))
REPRESENTATION_ITEM($)
);
#15=(
BOUNDED_CURVE()
B_SPLINE_CURVE(2,(#392,#393,#394),.UNSPECIFIED.,.F.,.F.)
B_SPLINE_CURVE_WITH_KNOTS((3,3),(0.,0.233687227615585),.UNSPECIFIED.)
CURVE()
GEOMETRIC_REPRESENTATION_ITEM()
RATIONAL_B_SPLINE_CURVE((1.,1.15470053837925,1.))
REPRESENTATION_ITEM($)
);
#16=(
BOUNDED_CURVE()
B_SPLINE_CURVE(2,(#398,#399,#400),.UNSPECIFIED.,.F.,.F.)
B_SPLINE_CURVE_WITH_KNOTS((3,3),(0.,0.233687227615585),.UNSPECIFIED.)
CURVE()
GEOMETRIC_REPRESENTATION_ITEM()
RATIONAL_B_SPLINE_CURVE((1.,1.15470053837925,1.))
REPRESENTATION_ITEM($)
);
#17=(
BOUNDED_CURVE()
B_SPLINE_CURVE(2,(#404,#405,#406),.UNSPECIFIED.,.F.,.F.)
B_SPLINE_CURVE_WITH_KNOTS((3,3),(0.,0.233687227615585),.UNSPECIFIED.)
CURVE()
GEOMETRIC_REPRESENTATION_ITEM()
RATIONAL_B_SPLINE_CURVE((1.,1.15470053837925,1.))
REPRESENTATION_ITEM($)
);
#18=(
BOUNDED_CURVE()
B_SPLINE_CURVE(2,(#409,#410,#411),.UNSPECIFIED.,.F.,.F.)
B_SPLINE_CURVE_WITH_KNOTS((3,3),(0.,0.233687227615586),.UNSPECIFIED.)
CURVE()
GEOMETRIC_REPRESENTATION_ITEM()
RATIONAL_B_SPLINE_CURVE((1.,1.15470053837925,1.))
REPRESENTATION_ITEM($)
);
#19=LINE($,#365,#31);
#20=LINE($,#367,#32);
#21=LINE($,#369,#33);
#22=LINE($,#371,#34);
#23=LINE($,#373,#35);
#24=LINE($,#374,#36);
#25=LINE($,#382,#37);
#26=LINE($,#383,#38);
#27=LINE($,#389,#39);
#28=LINE($,#395,#40);
#29=LINE($,#401,#41);
#30=LINE($,#407,#42);
#31=VECTOR($,#307,2.3094010767585);
#32=VECTOR($,#308,2.30940107675851);
#33=VECTOR($,#309,2.3094010767585);
#34=VECTOR($,#310,2.3094010767585);
#35=VECTOR($,#311,2.3094010767585);
#36=VECTOR($,#312,2.3094010767585);
#37=VECTOR($,#317,2.08);
#38=VECTOR($,#318,2.08);
#39=VECTOR($,#321,2.08);
#40=VECTOR($,#324,2.08);
#41=VECTOR($,#327,2.08);
#42=VECTOR($,#330,2.08);
#43=CONICAL_SURFACE($,#254,2.693275,45.0000000000001);
#44=CONICAL_SURFACE($,#268,1.15470053837925,60.);
#45=TOROIDAL_SURFACE($,#248,3.25,0.25);
#46=TOROIDAL_SURFACE($,#257,2.69,2.56);
#47=CYLINDRICAL_SURFACE($,#246,6.3);
#48=CYLINDRICAL_SURFACE($,#251,3.);
#49=CYLINDRICAL_SURFACE($,#261,5.25);
#50=FACE_BOUND($,#77,.T.);
#51=FACE_BOUND($,#79,.T.);
#52=FACE_BOUND($,#81,.T.);
#53=FACE_BOUND($,#83,.T.);
#54=FACE_BOUND($,#85,.T.);
#55=FACE_BOUND($,#87,.T.);
#56=FACE_BOUND($,#90,.T.);
#57=FACE_BOUND($,#91,.T.);
#58=FACE_BOUND($,#92,.T.);
#59=FACE_BOUND($,#94,.T.);
#60=FACE_OUTER_BOUND($,#76,.T.);
#61=FACE_OUTER_BOUND($,#78,.T.);
#62=FACE_OUTER_BOUND($,#80,.T.);
#63=FACE_OUTER_BOUND($,#82,.T.);
#64=FACE_OUTER_BOUND($,#84,.T.);
#65=FACE_OUTER_BOUND($,#86,.T.);
#66=FACE_OUTER_BOUND($,#88,.T.);
#67=FACE_OUTER_BOUND($,#89,.T.);
#68=FACE_OUTER_BOUND($,#93,.T.);
#69=FACE_OUTER_BOUND($,#95,.T.);
#70=FACE_OUTER_BOUND($,#96,.T.);
#71=FACE_OUTER_BOUND($,#97,.T.);
#72=FACE_OUTER_BOUND($,#98,.T.);
#73=FACE_OUTER_BOUND($,#99,.T.);
#74=FACE_OUTER_BOUND($,#100,.T.);
#75=FACE_OUTER_BOUND($,#101,.T.);
#76=EDGE_LOOP($,(#159));
#77=EDGE_LOOP($,(#160));
#78=EDGE_LOOP($,(#161));
#79=EDGE_LOOP($,(#162));
#80=EDGE_LOOP($,(#163));
#81=EDGE_LOOP($,(#164));
#82=EDGE_LOOP($,(#165));
#83=EDGE_LOOP($,(#166));
#84=EDGE_LOOP($,(#167));
#85=EDGE_LOOP($,(#168));
#86=EDGE_LOOP($,(#169));
#87=EDGE_LOOP($,(#170));
#88=EDGE_LOOP($,(#171));
#89=EDGE_LOOP($,(#172));
#90=EDGE_LOOP($,(#173));
#91=EDGE_LOOP($,(#174,#175,#176,#177,#178,#179));
#92=EDGE_LOOP($,(#180));
#93=EDGE_LOOP($,(#181));
#94=EDGE_LOOP($,(#182));
#95=EDGE_LOOP($,(#183,#184,#185,#186));
#96=EDGE_LOOP($,(#187,#188,#189,#190));
#97=EDGE_LOOP($,(#191,#192,#193,#194));
#98=EDGE_LOOP($,(#195,#196,#197,#198));
#99=EDGE_LOOP($,(#199,#200,#201,#202));
#100=EDGE_LOOP($,(#203,#204,#205,#206));
#101=EDGE_LOOP($,(#207,#208,#209,#210,#211,#212));
#102=CIRCLE($,#244,6.3);
#103=CIRCLE($,#245,5.25);
#104=CIRCLE($,#247,6.3);
#105=CIRCLE($,#249,3.25);
#106=CIRCLE($,#250,3.);
#107=CIRCLE($,#252,3.);
#108=CIRCLE($,#255,2.38655);
#109=CIRCLE($,#258,2.69);
#110=CIRCLE($,#259,5.25);
#111=VERTEX_POINT($,#337);
#112=VERTEX_POINT($,#339);
#113=VERTEX_POINT($,#342);
#114=VERTEX_POINT($,#345);
#115=VERTEX_POINT($,#347);
#116=VERTEX_POINT($,#350);
#117=VERTEX_POINT($,#354);
#118=VERTEX_POINT($,#358);
#119=VERTEX_POINT($,#360);
#120=VERTEX_POINT($,#363);
#121=VERTEX_POINT($,#364);
#122=VERTEX_POINT($,#366);
#123=VERTEX_POINT($,#368);
#124=VERTEX_POINT($,#370);
#125=VERTEX_POINT($,#372);
#126=VERTEX_POINT($,#377);
#127=VERTEX_POINT($,#378);
#128=VERTEX_POINT($,#385);
#129=VERTEX_POINT($,#391);
#130=VERTEX_POINT($,#397);
#131=VERTEX_POINT($,#403);
#132=EDGE_CURVE($,#111,#111,#102,.T.);
#133=EDGE_CURVE($,#112,#112,#103,.T.);
#134=EDGE_CURVE($,#113,#113,#104,.T.);
#135=EDGE_CURVE($,#114,#114,#105,.T.);
#136=EDGE_CURVE($,#115,#115,#106,.T.);
#137=EDGE_CURVE($,#116,#116,#107,.T.);
#138=EDGE_CURVE($,#117,#117,#108,.T.);
#139=EDGE_CURVE($,#118,#118,#109,.T.);
#140=EDGE_CURVE($,#119,#119,#110,.T.);
#141=EDGE_CURVE($,#120,#121,#19,.T.);
#142=EDGE_CURVE($,#121,#122,#20,.T.);
#143=EDGE_CURVE($,#122,#123,#21,.T.);
#144=EDGE_CURVE($,#123,#124,#22,.T.);
#145=EDGE_CURVE($,#124,#125,#23,.T.);
#146=EDGE_CURVE($,#125,#120,#24,.T.);
#147=EDGE_CURVE($,#126,#127,#13,.T.);
#148=EDGE_CURVE($,#126,#125,#25,.T.);
#149=EDGE_CURVE($,#127,#124,#26,.T.);
#150=EDGE_CURVE($,#128,#126,#14,.T.);
#151=EDGE_CURVE($,#128,#120,#27,.T.);
#152=EDGE_CURVE($,#129,#128,#15,.T.);
#153=EDGE_CURVE($,#129,#121,#28,.T.);
#154=EDGE_CURVE($,#130,#129,#16,.T.);
#155=EDGE_CURVE($,#122,#130,#29,.T.);
#156=EDGE_CURVE($,#127,#131,#17,.T.);
#157=EDGE_CURVE($,#131,#123,#30,.T.);
#158=EDGE_CURVE($,#131,#130,#18,.T.);
#159=ORIENTED_EDGE($,*,*,#132,.F.);
#160=ORIENTED_EDGE($,*,*,#133,.F.);
#161=ORIENTED_EDGE($,*,*,#132,.T.);
#162=ORIENTED_EDGE($,*,*,#134,.T.);
#163=ORIENTED_EDGE($,*,*,#135,.T.);
#164=ORIENTED_EDGE($,*,*,#136,.T.);
#165=ORIENTED_EDGE($,*,*,#137,.F.);
#166=ORIENTED_EDGE($,*,*,#136,.F.);
#167=ORIENTED_EDGE($,*,*,#134,.F.);
#168=ORIENTED_EDGE($,*,*,#135,.F.);
#169=ORIENTED_EDGE($,*,*,#137,.T.);
#170=ORIENTED_EDGE($,*,*,#138,.T.);
#171=ORIENTED_EDGE($,*,*,#138,.F.);
#172=ORIENTED_EDGE($,*,*,#139,.T.);
#173=ORIENTED_EDGE($,*,*,#140,.T.);
#174=ORIENTED_EDGE($,*,*,#141,.T.);
#175=ORIENTED_EDGE($,*,*,#142,.T.);
#176=ORIENTED_EDGE($,*,*,#143,.T.);
#177=ORIENTED_EDGE($,*,*,#144,.T.);
#178=ORIENTED_EDGE($,*,*,#145,.T.);
#179=ORIENTED_EDGE($,*,*,#146,.T.);
#180=ORIENTED_EDGE($,*,*,#139,.F.);
#181=ORIENTED_EDGE($,*,*,#133,.T.);
#182=ORIENTED_EDGE($,*,*,#140,.F.);
#183=ORIENTED_EDGE($,*,*,#147,.F.);
#184=ORIENTED_EDGE($,*,*,#148,.T.);
#185=ORIENTED_EDGE($,*,*,#145,.F.);
#186=ORIENTED_EDGE($,*,*,#149,.F.);
#187=ORIENTED_EDGE($,*,*,#150,.F.);
#188=ORIENTED_EDGE($,*,*,#151,.T.);
#189=ORIENTED_EDGE($,*,*,#146,.F.);
#190=ORIENTED_EDGE($,*,*,#148,.F.);
#191=ORIENTED_EDGE($,*,*,#152,.F.);
#192=ORIENTED_EDGE($,*,*,#153,.T.);
#193=ORIENTED_EDGE($,*,*,#141,.F.);
#194=ORIENTED_EDGE($,*,*,#151,.F.);
#195=ORIENTED_EDGE($,*,*,#154,.F.);
#196=ORIENTED_EDGE($,*,*,#155,.F.);
#197=ORIENTED_EDGE($,*,*,#142,.F.);
#198=ORIENTED_EDGE($,*,*,#153,.F.);
#199=ORIENTED_EDGE($,*,*,#156,.F.);
#200=ORIENTED_EDGE($,*,*,#149,.T.);
#201=ORIENTED_EDGE($,*,*,#144,.F.);
#202=ORIENTED_EDGE($,*,*,#157,.F.);
#203=ORIENTED_EDGE($,*,*,#158,.F.);
#204=ORIENTED_EDGE($,*,*,#157,.T.);
#205=ORIENTED_EDGE($,*,*,#143,.F.);
#206=ORIENTED_EDGE($,*,*,#155,.T.);
#207=ORIENTED_EDGE($,*,*,#154,.T.);
#208=ORIENTED_EDGE($,*,*,#152,.T.);
#209=ORIENTED_EDGE($,*,*,#150,.T.);
#210=ORIENTED_EDGE($,*,*,#147,.T.);
#211=ORIENTED_EDGE($,*,*,#156,.T.);
#212=ORIENTED_EDGE($,*,*,#158,.T.);
#213=PLANE($,#243);
#214=PLANE($,#253);
#215=PLANE($,#256);
#216=PLANE($,#260);
#217=PLANE($,#262);
#218=PLANE($,#263);
#219=PLANE($,#264);
#220=PLANE($,#265);
#221=PLANE($,#266);
#222=PLANE($,#267);
#223=ADVANCED_FACE($,(#60,#50),#213,.T.);
#224=ADVANCED_FACE($,(#61,#51),#47,.T.);
#225=ADVANCED_FACE($,(#62,#52),#45,.F.);
#226=ADVANCED_FACE($,(#63,#53),#48,.T.);
#227=ADVANCED_FACE($,(#64,#54),#214,.T.);
#228=ADVANCED_FACE($,(#65,#55),#43,.T.);
#229=ADVANCED_FACE($,(#66),#215,.T.);
#230=ADVANCED_FACE($,(#67,#56),#46,.T.);
#231=ADVANCED_FACE($,(#57,#58),#216,.T.);
#232=ADVANCED_FACE($,(#68,#59),#49,.T.);
#233=ADVANCED_FACE($,(#69),#217,.F.);
#234=ADVANCED_FACE($,(#70),#218,.F.);
#235=ADVANCED_FACE($,(#71),#219,.F.);
#236=ADVANCED_FACE($,(#72),#220,.F.);
#237=ADVANCED_FACE($,(#73),#221,.F.);
#238=ADVANCED_FACE($,(#74),#222,.F.);
#239=ADVANCED_FACE($,(#75),#44,.F.);
#240=CLOSED_SHELL($,(#223,#224,#225,#226,#227,#228,#229,#230,#231,#232,
#233,#234,#235,#236,#237,#238,#239));
#241=MANIFOLD_SOLID_BREP('Solid1',#240);
#242=AXIS2_PLACEMENT_3D('placement',#335,#269,#270);
#243=AXIS2_PLACEMENT_3D($,#336,#271,#272);
#244=AXIS2_PLACEMENT_3D($,#338,#273,#274);
#245=AXIS2_PLACEMENT_3D($,#340,#275,#276);
#246=AXIS2_PLACEMENT_3D($,#341,#277,#278);
#247=AXIS2_PLACEMENT_3D($,#343,#279,#280);
#248=AXIS2_PLACEMENT_3D($,#344,#281,#282);
#249=AXIS2_PLACEMENT_3D($,#346,#283,#284);
#250=AXIS2_PLACEMENT_3D($,#348,#285,#286);
#251=AXIS2_PLACEMENT_3D($,#349,#287,#288);
#252=AXIS2_PLACEMENT_3D($,#351,#289,#290);
#253=AXIS2_PLACEMENT_3D($,#352,#291,#292);
#254=AXIS2_PLACEMENT_3D($,#353,#293,#294);
#255=AXIS2_PLACEMENT_3D($,#355,#295,#296);
#256=AXIS2_PLACEMENT_3D($,#356,#297,#298);
#257=AXIS2_PLACEMENT_3D($,#357,#299,#300);
#258=AXIS2_PLACEMENT_3D($,#359,#301,#302);
#259=AXIS2_PLACEMENT_3D($,#361,#303,#304);
#260=AXIS2_PLACEMENT_3D($,#362,#305,#306);
#261=AXIS2_PLACEMENT_3D($,#375,#313,#314);
#262=AXIS2_PLACEMENT_3D($,#376,#315,#316);
#263=AXIS2_PLACEMENT_3D($,#384,#319,#320);
#264=AXIS2_PLACEMENT_3D($,#390,#322,#323);
#265=AXIS2_PLACEMENT_3D($,#396,#325,#326);
#266=AXIS2_PLACEMENT_3D($,#402,#328,#329);
#267=AXIS2_PLACEMENT_3D($,#408,#331,#332);
#268=AXIS2_PLACEMENT_3D($,#412,#333,#334);
#269=DIRECTION('axis',(0.,0.,1.));
#270=DIRECTION('refdir',(1.,0.,0.));
#271=DIRECTION('center_axis',(-1.,0.,0.));
#272=DIRECTION('ref_axis',(0.,0.,1.));
#273=DIRECTION('center_axis',(1.,0.,0.));
#274=DIRECTION('ref_axis',(0.,-1.,0.));
#275=DIRECTION('center_axis',(-1.,0.,0.));
#276=DIRECTION('ref_axis',(0.,1.,0.));
#277=DIRECTION('center_axis',(-1.,0.,0.));
#278=DIRECTION('ref_axis',(0.,-1.,0.));
#279=DIRECTION('center_axis',(-1.,0.,0.));
#280=DIRECTION('ref_axis',(0.,-1.,0.));
#281=DIRECTION('center_axis',(1.,-7.84719630039152E-019,0.));
#282=DIRECTION('ref_axis',(0.,0.,-1.));
#283=DIRECTION('center_axis',(1.,-7.84719630039152E-019,0.));
#284=DIRECTION('ref_axis',(-7.84719630039152E-019,-1.,1.22464679914735E-016));
#285=DIRECTION('center_axis',(-1.,7.84719630039152E-019,0.));
#286=DIRECTION('ref_axis',(0.,-1.,1.22464679914735E-016));
#287=DIRECTION('center_axis',(1.,-7.84719630039152E-019,0.));
#288=DIRECTION('ref_axis',(0.,1.,0.));
#289=DIRECTION('center_axis',(1.,-7.84719630039152E-019,0.));
#290=DIRECTION('ref_axis',(0.,-1.,0.));
#291=DIRECTION('center_axis',(1.,-7.84719630039152E-019,0.));
#292=DIRECTION('ref_axis',(0.,0.,-1.));
#293=DIRECTION('center_axis',(-1.,7.84719630039152E-019,0.));
#294=DIRECTION('ref_axis',(-3.47675716937546E-019,-1.,0.));
#295=DIRECTION('center_axis',(-1.,7.84719630039152E-019,0.));
#296=DIRECTION('ref_axis',(-7.84719630039152E-019,-1.,0.));
#297=DIRECTION('center_axis',(1.,-7.84719630039152E-019,0.));
#298=DIRECTION('ref_axis',(0.,0.,-1.));
#299=DIRECTION('center_axis',(1.,-7.84719630039152E-019,0.));
#300=DIRECTION('ref_axis',(0.,0.,-1.));
#301=DIRECTION('center_axis',(1.,-7.84719630039152E-019,0.));
#302=DIRECTION('ref_axis',(-7.84719630039152E-019,-1.,1.22464679914735E-016));
#303=DIRECTION('center_axis',(-1.,7.84719630039152E-019,0.));
#304=DIRECTION('ref_axis',(0.,-1.,1.22464679914735E-016));
#305=DIRECTION('center_axis',(-1.,7.84719630039152E-019,0.));
#306=DIRECTION('ref_axis',(0.,0.,1.));
#307=DIRECTION($,(8.48804944408878E-034,1.08166651109076E-015,1.));
#308=DIRECTION($,(-6.79587134462232E-019,-0.866025403784438,0.500000000000001));
#309=DIRECTION($,(-6.79587134462232E-019,-0.866025403784439,-0.5));
#310=DIRECTION($,(-9.43116604898753E-035,-1.20185167898973E-016,-1.));
#311=DIRECTION($,(6.79587134462232E-019,0.866025403784439,-0.5));
#312=DIRECTION($,(6.79587134462232E-019,0.866025403784439,0.5));
#313=DIRECTION('center_axis',(1.,-7.84719630039152E-019,0.));
#314=DIRECTION('ref_axis',(0.,1.,0.));
#315=DIRECTION('center_axis',(-3.92359815019576E-019,-0.5,-0.866025403784439));
#316=DIRECTION('ref_axis',(-1.,0.,0.));
#317=DIRECTION($,(-1.,7.84719630039152E-019,0.));
#318=DIRECTION($,(-1.,7.84719630039152E-019,0.));
#319=DIRECTION('center_axis',(3.92359815019576E-019,0.5,-0.866025403784439));
#320=DIRECTION('ref_axis',(-1.,0.,0.));
#321=DIRECTION($,(-1.,7.84719630039152E-019,0.));
#322=DIRECTION('center_axis',(7.84719630039152E-019,1.,-1.08166651109076E-015));
#323=DIRECTION('ref_axis',(0.,1.06581410364015E-015,1.));
#324=DIRECTION($,(-1.,7.84719630039152E-019,0.));
#325=DIRECTION('center_axis',(3.92359815019577E-019,0.500000000000001,0.866025403784438));
#326=DIRECTION('ref_axis',(1.,0.,0.));
#327=DIRECTION($,(1.,-7.84719630039152E-019,0.));
#328=DIRECTION('center_axis',(-7.84719630039152E-019,-1.,1.20185167898973E-016));
#329=DIRECTION('ref_axis',(0.,-1.33226762955019E-016,-1.));
#330=DIRECTION($,(-1.,7.84719630039152E-019,0.));
#331=DIRECTION('center_axis',(-3.92359815019576E-019,-0.5,0.866025403784439));
#332=DIRECTION('ref_axis',(1.,0.,0.));
#333=DIRECTION('center_axis',(-1.,7.84719630039152E-019,0.));
#334=DIRECTION('ref_axis',(0.,1.,0.));
#335=CARTESIAN_POINT('',(0.,0.,0.));
#336=CARTESIAN_POINT('Origin',(-0.66,0.,0.));
#337=CARTESIAN_POINT('',(-0.66,6.3,7.71527483462833E-016));
#338=CARTESIAN_POINT('Origin',(-0.66,0.,0.));
#339=CARTESIAN_POINT('',(-0.66,-5.25,6.42939569552361E-016));
#340=CARTESIAN_POINT('Origin',(-0.66,8.36511125621736E-018,0.));
#341=CARTESIAN_POINT('Origin',(0.,0.,0.));
#342=CARTESIAN_POINT('',(0.,6.3,7.71527483462833E-016));
#343=CARTESIAN_POINT('Origin',(0.,0.,0.));
#344=CARTESIAN_POINT('Origin',(0.250000000000002,7.65101639288173E-018,
0.));
#345=CARTESIAN_POINT('',(2.22299638804794E-015,3.25,0.));
#346=CARTESIAN_POINT('Origin',(2.22044604925031E-015,7.84719630039152E-018,
0.));
#347=CARTESIAN_POINT('',(0.250000000000002,3.,-7.34788079488411E-016));
#348=CARTESIAN_POINT('Origin',(0.250000000000002,7.65101639288173E-018,
0.));
#349=CARTESIAN_POINT('Origin',(6.,3.13887852015661E-018,0.));
#350=CARTESIAN_POINT('',(9.38655,3.,3.67394039744206E-016));
#351=CARTESIAN_POINT('Origin',(9.38655,4.81386257047515E-019,0.));
#352=CARTESIAN_POINT('Origin',(2.22044604925031E-015,4.125,0.));
#353=CARTESIAN_POINT('Origin',(9.693275,2.40693128523757E-019,0.));
#354=CARTESIAN_POINT('',(10.,2.38655,-2.92268081850511E-016));
#355=CARTESIAN_POINT('Origin',(10.,-7.82409039907315E-034,0.));
#356=CARTESIAN_POINT('Origin',(10.,1.5,0.));
#357=CARTESIAN_POINT('Origin',(-0.739999999999996,8.42788882662049E-018,
0.));
#358=CARTESIAN_POINT('',(-3.3,2.69,0.));
#359=CARTESIAN_POINT('Origin',(-3.3,1.04367710795207E-017,0.));
#360=CARTESIAN_POINT('',(-0.739999999999996,5.25,-1.28587913910472E-015));
#361=CARTESIAN_POINT('Origin',(-0.739999999999996,8.42788882662049E-018,
0.));
#362=CARTESIAN_POINT('Origin',(-3.3,3.77970053837925,0.));
#363=CARTESIAN_POINT('',(-3.3,2.,-1.15470053837925));
#364=CARTESIAN_POINT('',(-3.3,2.,1.15470053837925));
#365=CARTESIAN_POINT($,(-3.3,2.,0.577350269189623));
#366=CARTESIAN_POINT('',(-3.3,2.93256834739496E-016,2.3094010767585));
#367=CARTESIAN_POINT($,(-3.3,0.500000000000001,2.02072594216369));
#368=CARTESIAN_POINT('',(-3.3,-2.,1.15470053837925));
#369=CARTESIAN_POINT($,(-3.3,-1.5,1.44337567297407));
#370=CARTESIAN_POINT('',(-3.3,-2.,-1.15470053837925));
#371=CARTESIAN_POINT($,(-3.3,-2.,-0.577350269189625));
#372=CARTESIAN_POINT('',(-3.3,-2.68079116041044E-016,-2.3094010767585));
#373=CARTESIAN_POINT($,(-3.3,-0.500000000000001,-2.02072594216369));
#374=CARTESIAN_POINT($,(-3.3,1.5,-1.44337567297407));
#375=CARTESIAN_POINT('Origin',(-1.65,9.14198368995612E-018,0.));
#376=CARTESIAN_POINT('Origin',(-3.3,-2.68079116041044E-016,-2.3094010767585));
#377=CARTESIAN_POINT('',(-1.21999999999999,-1.40410094908626E-016,-2.3094010767585));
#378=CARTESIAN_POINT('',(-1.21999999999999,-2.,-1.15470053837925));
#379=CARTESIAN_POINT('Ctrl Pts',(-1.22,4.84946747132608E-015,-2.30940107675851));
#380=CARTESIAN_POINT('Ctrl Pts',(-0.88666666666666,-1.,-1.73205080756888));
#381=CARTESIAN_POINT('Ctrl Pts',(-1.22,-2.00000000000001,-1.15470053837925));
#382=CARTESIAN_POINT($,(-2.26,-1.38777878078145E-016,-2.3094010767585));
#383=CARTESIAN_POINT($,(-2.26,-2.,-1.15470053837925));
#384=CARTESIAN_POINT('Origin',(-3.3,2.,-1.15470053837925));
#385=CARTESIAN_POINT('',(-1.21999999999999,2.,-1.15470053837925));
#386=CARTESIAN_POINT('Ctrl Pts',(-1.22,2.00000000000001,-1.15470053837925));
#387=CARTESIAN_POINT('Ctrl Pts',(-0.886666666666661,1.,-1.73205080756888));
#388=CARTESIAN_POINT('Ctrl Pts',(-1.22,-5.55887338453478E-015,-2.30940107675851));
#389=CARTESIAN_POINT($,(-2.26,2.,-1.15470053837925));
#390=CARTESIAN_POINT('Origin',(-3.3,2.,1.15470053837925));
#391=CARTESIAN_POINT('',(-1.21999999999999,2.,1.15470053837925));
#392=CARTESIAN_POINT('Ctrl Pts',(-1.22,2.,1.15470053837926));
#393=CARTESIAN_POINT('Ctrl Pts',(-0.88666666666666,2.,-1.84915603932649E-015));
#394=CARTESIAN_POINT('Ctrl Pts',(-1.22,2.,-1.15470053837926));
#395=CARTESIAN_POINT($,(-2.26,2.,1.15470053837925));
#396=CARTESIAN_POINT('Origin',(-3.3,2.5895747791292E-018,2.3094010767585));
#397=CARTESIAN_POINT('',(-1.21999999999999,-1.63221683048143E-018,2.3094010767585));
#398=CARTESIAN_POINT('Ctrl Pts',(-1.22,-5.55887338453478E-015,2.30940107675851));
#399=CARTESIAN_POINT('Ctrl Pts',(-0.886666666666659,1.,1.73205080756888));
#400=CARTESIAN_POINT('Ctrl Pts',(-1.22,2.00000000000001,1.15470053837925));
#401=CARTESIAN_POINT($,(-2.26,0.,2.3094010767585));
#402=CARTESIAN_POINT('Origin',(-3.3,-2.,-1.15470053837925));
#403=CARTESIAN_POINT('',(-1.21999999999999,-2.,1.15470053837925));
#404=CARTESIAN_POINT('Ctrl Pts',(-1.22,-2.,-1.15470053837926));
#405=CARTESIAN_POINT('Ctrl Pts',(-0.88666666666666,-2.,-1.63123192806608E-016));
#406=CARTESIAN_POINT('Ctrl Pts',(-1.22,-2.,1.15470053837926));
#407=CARTESIAN_POINT($,(-2.26,-2.,1.15470053837925));
#408=CARTESIAN_POINT('Origin',(-3.3,-2.,1.15470053837925));
#409=CARTESIAN_POINT('Ctrl Pts',(-1.22,-2.00000000000001,1.15470053837925));
#410=CARTESIAN_POINT('Ctrl Pts',(-0.886666666666659,-1.,1.73205080756888));
#411=CARTESIAN_POINT('Ctrl Pts',(-1.22,8.31891442327971E-015,2.30940107675851));
#412=CARTESIAN_POINT('Origin',(-0.553333333333328,8.28140782901318E-018,
0.));
#413=UNCERTAINTY_MEASURE_WITH_UNIT(LENGTH_MEASURE(0.01),#415,
'DISTANCE_ACCURACY_VALUE',
'Maximum model space distance between geometric entities at asserted c
onnectivities');
#414=(
GEOMETRIC_REPRESENTATION_CONTEXT(3)
GLOBAL_UNCERTAINTY_ASSIGNED_CONTEXT((#413))
GLOBAL_UNIT_ASSIGNED_CONTEXT((#415,#418,#416))
REPRESENTATION_CONTEXT('','3D')
);
#415=(
LENGTH_UNIT()
NAMED_UNIT(*)
SI_UNIT(.MILLI.,.METRE.)
);
#416=(
NAMED_UNIT(*)
SI_UNIT($,.STERADIAN.)
SOLID_ANGLE_UNIT()
);
#417=DIMENSIONAL_EXPONENTS(0.,0.,0.,0.,0.,0.,0.);
#418=(
CONVERSION_BASED_UNIT('degree',#420)
NAMED_UNIT(#417)
PLANE_ANGLE_UNIT()
);
#419=(
NAMED_UNIT(*)
PLANE_ANGLE_UNIT()
SI_UNIT($,.RADIAN.)
);
#420=PLANE_ANGLE_MEASURE_WITH_UNIT(PLANE_ANGLE_MEASURE(0.01745329252),#419);
#421=SHAPE_DEFINITION_REPRESENTATION(#422,#423);
#422=PRODUCT_DEFINITION_SHAPE('',$,#425);
#423=SHAPE_REPRESENTATION('',(#242),#414);
#424=PRODUCT_DEFINITION_CONTEXT('3D Mechanical Parts',#428,'design');
#425=PRODUCT_DEFINITION('200610-2','200610-2',#426,#424);
#426=PRODUCT_DEFINITION_FORMATION('',$,#430);
#427=APPLICATION_PROTOCOL_DEFINITION('international standard',
'automotive_design',2009,#428);
#428=APPLICATION_CONTEXT(
'Core Data for Automotive Mechanical Design Process');
#429=PRODUCT_CONTEXT('3D Mechanical Parts',#428,'mechanical');
#430=PRODUCT('200610-2','200610-2',$,(#429));
#431=PRESENTATION_STYLE_ASSIGNMENT((#432));
#432=SURFACE_STYLE_USAGE(.BOTH.,#433);
#433=SURFACE_SIDE_STYLE($,(#434));
#434=SURFACE_STYLE_FILL_AREA(#435);
#435=FILL_AREA_STYLE($,(#436));
#436=FILL_AREA_STYLE_COLOUR($,#437);
#437=COLOUR_RGB('',0.63921568627451,0.63921568627451,0.686274509803922);
ENDSEC;
END-ISO-10303-21;
