ISO-10303-21;
HEADER;
/* Generated by software containing ST-Developer
 * from STEP Tools, Inc. (www.steptools.com) 
 */

FILE_DESCRIPTION(
/* description */ ('\X2\0160\X0\roub DIN 912'),
/* implementation_level */ '2;1');

FILE_NAME(
/* name */ 
'D:\\Work\\Zakazky\\2013\\AlutecKK\\stp\\Srouby\\DIN912\\200820-1.stp',

/* time_stamp */ '2013-12-05T18:53:12+01:00',
/* author */ ('PC'),
/* organization */ (''),
/* preprocessor_version */ 'ST-DEVELOPER v15.2',
/* originating_system */ 'Autodesk Inventor 2014',
/* authorisation */ '');

FILE_SCHEMA (('AUTOMOTIVE_DESIGN { 1 0 10303 214 3 1 1 }'));
ENDSEC;

DATA;
#10=SHAPE_REPRESENTATION_RELATIONSHIP('SRR','None',#383,#11);
#11=ADVANCED_BREP_SHAPE_REPRESENTATION($,(#219),#374);
#12=STYLED_ITEM($,(#391),#219);
#13=(
BOUNDED_CURVE()
B_SPLINE_CURVE(2,(#339,#340,#341),.UNSPECIFIED.,.F.,.F.)
B_SPLINE_CURVE_WITH_KNOTS((3,3),(0.,0.350530841423403),.UNSPECIFIED.)
CURVE()
GEOMETRIC_REPRESENTATION_ITEM()
RATIONAL_B_SPLINE_CURVE((1.,1.15470053837927,1.))
REPRESENTATION_ITEM($)
);
#14=(
BOUNDED_CURVE()
B_SPLINE_CURVE(2,(#346,#347,#348),.UNSPECIFIED.,.F.,.F.)
B_SPLINE_CURVE_WITH_KNOTS((3,3),(0.,0.350530841423404),.UNSPECIFIED.)
CURVE()
GEOMETRIC_REPRESENTATION_ITEM()
RATIONAL_B_SPLINE_CURVE((1.,1.15470053837927,1.))
REPRESENTATION_ITEM($)
);
#15=(
BOUNDED_CURVE()
B_SPLINE_CURVE(2,(#352,#353,#354),.UNSPECIFIED.,.F.,.F.)
B_SPLINE_CURVE_WITH_KNOTS((3,3),(0.,0.350530841423403),.UNSPECIFIED.)
CURVE()
GEOMETRIC_REPRESENTATION_ITEM()
RATIONAL_B_SPLINE_CURVE((1.,1.15470053837928,1.))
REPRESENTATION_ITEM($)
);
#16=(
BOUNDED_CURVE()
B_SPLINE_CURVE(2,(#358,#359,#360),.UNSPECIFIED.,.F.,.F.)
B_SPLINE_CURVE_WITH_KNOTS((3,3),(0.,0.350530841423404),.UNSPECIFIED.)
CURVE()
GEOMETRIC_REPRESENTATION_ITEM()
RATIONAL_B_SPLINE_CURVE((1.,1.15470053837928,1.))
REPRESENTATION_ITEM($)
);
#17=(
BOUNDED_CURVE()
B_SPLINE_CURVE(2,(#364,#365,#366),.UNSPECIFIED.,.F.,.F.)
B_SPLINE_CURVE_WITH_KNOTS((3,3),(0.,0.350530841423403),.UNSPECIFIED.)
CURVE()
GEOMETRIC_REPRESENTATION_ITEM()
RATIONAL_B_SPLINE_CURVE((1.,1.15470053837928,1.))
REPRESENTATION_ITEM($)
);
#18=(
BOUNDED_CURVE()
B_SPLINE_CURVE(2,(#369,#370,#371),.UNSPECIFIED.,.F.,.F.)
B_SPLINE_CURVE_WITH_KNOTS((3,3),(0.,0.350530841423403),.UNSPECIFIED.)
CURVE()
GEOMETRIC_REPRESENTATION_ITEM()
RATIONAL_B_SPLINE_CURVE((1.,1.15470053837928,1.))
REPRESENTATION_ITEM($)
);
#19=LINE($,#325,#31);
#20=LINE($,#327,#32);
#21=LINE($,#329,#33);
#22=LINE($,#331,#34);
#23=LINE($,#333,#35);
#24=LINE($,#334,#36);
#25=LINE($,#342,#37);
#26=LINE($,#343,#38);
#27=LINE($,#349,#39);
#28=LINE($,#355,#40);
#29=LINE($,#361,#41);
#30=LINE($,#367,#42);
#31=VECTOR($,#273,3.46410161513775);
#32=VECTOR($,#274,3.46410161513776);
#33=VECTOR($,#275,3.46410161513775);
#34=VECTOR($,#276,3.46410161513775);
#35=VECTOR($,#277,3.46410161513776);
#36=VECTOR($,#278,3.46410161513775);
#37=VECTOR($,#283,4.);
#38=VECTOR($,#284,4.);
#39=VECTOR($,#287,4.);
#40=VECTOR($,#290,4.);
#41=VECTOR($,#293,4.);
#42=VECTOR($,#296,4.);
#43=CONICAL_SURFACE($,#228,3.61659375,45.);
#44=CONICAL_SURFACE($,#242,1.73205080756888,60.);
#45=PLANE($,#226);
#46=PLANE($,#230);
#47=PLANE($,#234);
#48=PLANE($,#236);
#49=PLANE($,#237);
#50=PLANE($,#238);
#51=PLANE($,#239);
#52=PLANE($,#240);
#53=PLANE($,#241);
#54=CYLINDRICAL_SURFACE($,#224,4.);
#55=CYLINDRICAL_SURFACE($,#235,6.5);
#56=FACE_BOUND($,#79,.T.);
#57=FACE_BOUND($,#81,.T.);
#58=FACE_BOUND($,#83,.T.);
#59=FACE_BOUND($,#85,.T.);
#60=FACE_BOUND($,#88,.T.);
#61=FACE_BOUND($,#89,.T.);
#62=FACE_BOUND($,#90,.T.);
#63=FACE_BOUND($,#92,.T.);
#64=FACE_OUTER_BOUND($,#78,.T.);
#65=FACE_OUTER_BOUND($,#80,.T.);
#66=FACE_OUTER_BOUND($,#82,.T.);
#67=FACE_OUTER_BOUND($,#84,.T.);
#68=FACE_OUTER_BOUND($,#86,.T.);
#69=FACE_OUTER_BOUND($,#87,.T.);
#70=FACE_OUTER_BOUND($,#91,.T.);
#71=FACE_OUTER_BOUND($,#93,.T.);
#72=FACE_OUTER_BOUND($,#94,.T.);
#73=FACE_OUTER_BOUND($,#95,.T.);
#74=FACE_OUTER_BOUND($,#96,.T.);
#75=FACE_OUTER_BOUND($,#97,.T.);
#76=FACE_OUTER_BOUND($,#98,.T.);
#77=FACE_OUTER_BOUND($,#99,.T.);
#78=EDGE_LOOP($,(#151));
#79=EDGE_LOOP($,(#152));
#80=EDGE_LOOP($,(#153));
#81=EDGE_LOOP($,(#154));
#82=EDGE_LOOP($,(#155));
#83=EDGE_LOOP($,(#156));
#84=EDGE_LOOP($,(#157));
#85=EDGE_LOOP($,(#158));
#86=EDGE_LOOP($,(#159));
#87=EDGE_LOOP($,(#160));
#88=EDGE_LOOP($,(#161));
#89=EDGE_LOOP($,(#162,#163,#164,#165,#166,#167));
#90=EDGE_LOOP($,(#168));
#91=EDGE_LOOP($,(#169));
#92=EDGE_LOOP($,(#170));
#93=EDGE_LOOP($,(#171,#172,#173,#174));
#94=EDGE_LOOP($,(#175,#176,#177,#178));
#95=EDGE_LOOP($,(#179,#180,#181,#182));
#96=EDGE_LOOP($,(#183,#184,#185,#186));
#97=EDGE_LOOP($,(#187,#188,#189,#190));
#98=EDGE_LOOP($,(#191,#192,#193,#194));
#99=EDGE_LOOP($,(#195,#196,#197,#198,#199,#200));
#100=CIRCLE($,#222,4.1);
#101=CIRCLE($,#223,4.);
#102=CIRCLE($,#225,4.);
#103=CIRCLE($,#227,6.5);
#104=CIRCLE($,#229,3.2331875);
#105=CIRCLE($,#232,5.7);
#106=CIRCLE($,#233,6.5);
#107=VERTEX_POINT($,#303);
#108=VERTEX_POINT($,#305);
#109=VERTEX_POINT($,#308);
#110=VERTEX_POINT($,#311);
#111=VERTEX_POINT($,#314);
#112=VERTEX_POINT($,#318);
#113=VERTEX_POINT($,#320);
#114=VERTEX_POINT($,#323);
#115=VERTEX_POINT($,#324);
#116=VERTEX_POINT($,#326);
#117=VERTEX_POINT($,#328);
#118=VERTEX_POINT($,#330);
#119=VERTEX_POINT($,#332);
#120=VERTEX_POINT($,#337);
#121=VERTEX_POINT($,#338);
#122=VERTEX_POINT($,#345);
#123=VERTEX_POINT($,#351);
#124=VERTEX_POINT($,#357);
#125=VERTEX_POINT($,#363);
#126=EDGE_CURVE($,#107,#107,#100,.T.);
#127=EDGE_CURVE($,#108,#108,#101,.T.);
#128=EDGE_CURVE($,#109,#109,#102,.T.);
#129=EDGE_CURVE($,#110,#110,#103,.T.);
#130=EDGE_CURVE($,#111,#111,#104,.T.);
#131=EDGE_CURVE($,#112,#112,#105,.T.);
#132=EDGE_CURVE($,#113,#113,#106,.T.);
#133=EDGE_CURVE($,#114,#115,#19,.T.);
#134=EDGE_CURVE($,#115,#116,#20,.T.);
#135=EDGE_CURVE($,#116,#117,#21,.T.);
#136=EDGE_CURVE($,#117,#118,#22,.T.);
#137=EDGE_CURVE($,#118,#119,#23,.T.);
#138=EDGE_CURVE($,#119,#114,#24,.T.);
#139=EDGE_CURVE($,#120,#121,#13,.T.);
#140=EDGE_CURVE($,#120,#119,#25,.T.);
#141=EDGE_CURVE($,#121,#118,#26,.T.);
#142=EDGE_CURVE($,#122,#120,#14,.T.);
#143=EDGE_CURVE($,#122,#114,#27,.T.);
#144=EDGE_CURVE($,#123,#122,#15,.T.);
#145=EDGE_CURVE($,#123,#115,#28,.T.);
#146=EDGE_CURVE($,#124,#123,#16,.T.);
#147=EDGE_CURVE($,#116,#124,#29,.T.);
#148=EDGE_CURVE($,#121,#125,#17,.T.);
#149=EDGE_CURVE($,#125,#117,#30,.T.);
#150=EDGE_CURVE($,#125,#124,#18,.T.);
#151=ORIENTED_EDGE($,*,*,#126,.T.);
#152=ORIENTED_EDGE($,*,*,#127,.T.);
#153=ORIENTED_EDGE($,*,*,#128,.F.);
#154=ORIENTED_EDGE($,*,*,#127,.F.);
#155=ORIENTED_EDGE($,*,*,#129,.T.);
#156=ORIENTED_EDGE($,*,*,#126,.F.);
#157=ORIENTED_EDGE($,*,*,#128,.T.);
#158=ORIENTED_EDGE($,*,*,#130,.T.);
#159=ORIENTED_EDGE($,*,*,#130,.F.);
#160=ORIENTED_EDGE($,*,*,#131,.T.);
#161=ORIENTED_EDGE($,*,*,#132,.T.);
#162=ORIENTED_EDGE($,*,*,#133,.T.);
#163=ORIENTED_EDGE($,*,*,#134,.T.);
#164=ORIENTED_EDGE($,*,*,#135,.T.);
#165=ORIENTED_EDGE($,*,*,#136,.T.);
#166=ORIENTED_EDGE($,*,*,#137,.T.);
#167=ORIENTED_EDGE($,*,*,#138,.T.);
#168=ORIENTED_EDGE($,*,*,#131,.F.);
#169=ORIENTED_EDGE($,*,*,#129,.F.);
#170=ORIENTED_EDGE($,*,*,#132,.F.);
#171=ORIENTED_EDGE($,*,*,#139,.F.);
#172=ORIENTED_EDGE($,*,*,#140,.T.);
#173=ORIENTED_EDGE($,*,*,#137,.F.);
#174=ORIENTED_EDGE($,*,*,#141,.F.);
#175=ORIENTED_EDGE($,*,*,#142,.F.);
#176=ORIENTED_EDGE($,*,*,#143,.T.);
#177=ORIENTED_EDGE($,*,*,#138,.F.);
#178=ORIENTED_EDGE($,*,*,#140,.F.);
#179=ORIENTED_EDGE($,*,*,#144,.F.);
#180=ORIENTED_EDGE($,*,*,#145,.T.);
#181=ORIENTED_EDGE($,*,*,#133,.F.);
#182=ORIENTED_EDGE($,*,*,#143,.F.);
#183=ORIENTED_EDGE($,*,*,#146,.F.);
#184=ORIENTED_EDGE($,*,*,#147,.F.);
#185=ORIENTED_EDGE($,*,*,#134,.F.);
#186=ORIENTED_EDGE($,*,*,#145,.F.);
#187=ORIENTED_EDGE($,*,*,#148,.F.);
#188=ORIENTED_EDGE($,*,*,#141,.T.);
#189=ORIENTED_EDGE($,*,*,#136,.F.);
#190=ORIENTED_EDGE($,*,*,#149,.F.);
#191=ORIENTED_EDGE($,*,*,#150,.F.);
#192=ORIENTED_EDGE($,*,*,#149,.T.);
#193=ORIENTED_EDGE($,*,*,#135,.F.);
#194=ORIENTED_EDGE($,*,*,#147,.T.);
#195=ORIENTED_EDGE($,*,*,#146,.T.);
#196=ORIENTED_EDGE($,*,*,#144,.T.);
#197=ORIENTED_EDGE($,*,*,#142,.T.);
#198=ORIENTED_EDGE($,*,*,#139,.T.);
#199=ORIENTED_EDGE($,*,*,#148,.T.);
#200=ORIENTED_EDGE($,*,*,#150,.T.);
#201=TOROIDAL_SURFACE($,#221,4.1,0.1);
#202=TOROIDAL_SURFACE($,#231,5.7,0.8);
#203=ADVANCED_FACE($,(#64,#56),#201,.F.);
#204=ADVANCED_FACE($,(#65,#57),#54,.T.);
#205=ADVANCED_FACE($,(#66,#58),#45,.T.);
#206=ADVANCED_FACE($,(#67,#59),#43,.T.);
#207=ADVANCED_FACE($,(#68),#46,.T.);
#208=ADVANCED_FACE($,(#69,#60),#202,.T.);
#209=ADVANCED_FACE($,(#61,#62),#47,.T.);
#210=ADVANCED_FACE($,(#70,#63),#55,.T.);
#211=ADVANCED_FACE($,(#71),#48,.F.);
#212=ADVANCED_FACE($,(#72),#49,.F.);
#213=ADVANCED_FACE($,(#73),#50,.F.);
#214=ADVANCED_FACE($,(#74),#51,.F.);
#215=ADVANCED_FACE($,(#75),#52,.F.);
#216=ADVANCED_FACE($,(#76),#53,.F.);
#217=ADVANCED_FACE($,(#77),#44,.F.);
#218=CLOSED_SHELL($,(#203,#204,#205,#206,#207,#208,#209,#210,#211,#212,
#213,#214,#215,#216,#217));
#219=MANIFOLD_SOLID_BREP('Solid1',#218);
#220=AXIS2_PLACEMENT_3D('placement',#301,#243,#244);
#221=AXIS2_PLACEMENT_3D($,#302,#245,#246);
#222=AXIS2_PLACEMENT_3D($,#304,#247,#248);
#223=AXIS2_PLACEMENT_3D($,#306,#249,#250);
#224=AXIS2_PLACEMENT_3D($,#307,#251,#252);
#225=AXIS2_PLACEMENT_3D($,#309,#253,#254);
#226=AXIS2_PLACEMENT_3D($,#310,#255,#256);
#227=AXIS2_PLACEMENT_3D($,#312,#257,#258);
#228=AXIS2_PLACEMENT_3D($,#313,#259,#260);
#229=AXIS2_PLACEMENT_3D($,#315,#261,#262);
#230=AXIS2_PLACEMENT_3D($,#316,#263,#264);
#231=AXIS2_PLACEMENT_3D($,#317,#265,#266);
#232=AXIS2_PLACEMENT_3D($,#319,#267,#268);
#233=AXIS2_PLACEMENT_3D($,#321,#269,#270);
#234=AXIS2_PLACEMENT_3D($,#322,#271,#272);
#235=AXIS2_PLACEMENT_3D($,#335,#279,#280);
#236=AXIS2_PLACEMENT_3D($,#336,#281,#282);
#237=AXIS2_PLACEMENT_3D($,#344,#285,#286);
#238=AXIS2_PLACEMENT_3D($,#350,#288,#289);
#239=AXIS2_PLACEMENT_3D($,#356,#291,#292);
#240=AXIS2_PLACEMENT_3D($,#362,#294,#295);
#241=AXIS2_PLACEMENT_3D($,#368,#297,#298);
#242=AXIS2_PLACEMENT_3D($,#372,#299,#300);
#243=DIRECTION('axis',(0.,0.,1.));
#244=DIRECTION('refdir',(1.,0.,0.));
#245=DIRECTION('center_axis',(1.,-8.32062733769349E-019,0.));
#246=DIRECTION('ref_axis',(0.,0.,-1.));
#247=DIRECTION('center_axis',(1.,-8.32062733769349E-019,0.));
#248=DIRECTION('ref_axis',(-8.32062733769349E-019,-1.,1.22464679914735E-016));
#249=DIRECTION('center_axis',(-1.,8.32062733769349E-019,0.));
#250=DIRECTION('ref_axis',(0.,-1.,1.22464679914735E-016));
#251=DIRECTION('center_axis',(1.,-8.32062733769349E-019,0.));
#252=DIRECTION('ref_axis',(1.13338950613046E-014,1.,0.));
#253=DIRECTION('center_axis',(1.,-8.32062733769349E-019,0.));
#254=DIRECTION('ref_axis',(-1.13338950613046E-014,-1.,0.));
#255=DIRECTION('center_axis',(1.,-8.32062733769349E-019,0.));
#256=DIRECTION('ref_axis',(0.,0.,-1.));
#257=DIRECTION('center_axis',(1.,-8.32062733769349E-019,0.));
#258=DIRECTION('ref_axis',(1.13338950613046E-014,1.,0.));
#259=DIRECTION('center_axis',(-1.,8.32062733769349E-019,0.));
#260=DIRECTION('ref_axis',(-6.26809003085411E-015,-1.,0.));
#261=DIRECTION('center_axis',(-1.,8.32062733769349E-019,0.));
#262=DIRECTION('ref_axis',(-8.32062733768939E-019,-1.,0.));
#263=DIRECTION('center_axis',(1.,-8.32062733769349E-019,0.));
#264=DIRECTION('ref_axis',(0.,0.,-1.));
#265=DIRECTION('center_axis',(1.,-8.32062733769349E-019,0.));
#266=DIRECTION('ref_axis',(0.,0.,-1.));
#267=DIRECTION('center_axis',(1.,-8.32062733769349E-019,0.));
#268=DIRECTION('ref_axis',(-8.32062733769349E-019,-1.,1.22464679914735E-016));
#269=DIRECTION('center_axis',(-1.,8.32062733769349E-019,0.));
#270=DIRECTION('ref_axis',(0.,-1.,1.22464679914735E-016));
#271=DIRECTION('center_axis',(-1.,8.32062733769349E-019,0.));
#272=DIRECTION('ref_axis',(0.,0.,1.));
#273=DIRECTION($,(8.0001279488438E-034,9.61481343191782E-016,1.));
#274=DIRECTION($,(-7.20587464986584E-019,-0.866025403784438,0.500000000000001));
#275=DIRECTION($,(-7.20587464986584E-019,-0.866025403784439,-0.5));
#276=DIRECTION($,(-1.33335465814063E-034,-1.60246890531964E-016,-1.));
#277=DIRECTION($,(7.20587464986584E-019,0.866025403784438,-0.5));
#278=DIRECTION($,(7.20587464986585E-019,0.866025403784439,0.5));
#279=DIRECTION('center_axis',(1.,-8.32062733769349E-019,0.));
#280=DIRECTION('ref_axis',(1.13338950613046E-014,1.,0.));
#281=DIRECTION('center_axis',(-4.16031366884675E-019,-0.5,-0.866025403784439));
#282=DIRECTION('ref_axis',(-1.,0.,0.));
#283=DIRECTION($,(-1.,8.32062733769349E-019,0.));
#284=DIRECTION($,(-1.,8.32062733769349E-019,0.));
#285=DIRECTION('center_axis',(4.16031366884674E-019,0.5,-0.866025403784439));
#286=DIRECTION('ref_axis',(-1.,0.,0.));
#287=DIRECTION($,(-1.,8.32062733769349E-019,0.));
#288=DIRECTION('center_axis',(8.32062733769349E-019,1.,-9.61481343191782E-016));
#289=DIRECTION('ref_axis',(0.,9.76996261670138E-016,1.));
#290=DIRECTION($,(-1.,8.32062733769349E-019,0.));
#291=DIRECTION('center_axis',(4.16031366884675E-019,0.5,0.866025403784438));
#292=DIRECTION('ref_axis',(1.,0.,0.));
#293=DIRECTION($,(1.,-8.32062733769349E-019,0.));
#294=DIRECTION('center_axis',(-8.32062733769349E-019,-1.,1.60246890531964E-016));
#295=DIRECTION('ref_axis',(0.,-1.77635683940025E-016,-1.));
#296=DIRECTION($,(-1.,8.32062733769349E-019,0.));
#297=DIRECTION('center_axis',(-4.16031366884675E-019,-0.5,0.866025403784439));
#298=DIRECTION('ref_axis',(1.,0.,0.));
#299=DIRECTION('center_axis',(-1.,8.32062733769349E-019,0.));
#300=DIRECTION('ref_axis',(1.13338950613046E-014,1.,0.));
#301=CARTESIAN_POINT('',(0.,0.,0.));
#302=CARTESIAN_POINT('Origin',(0.100000000000002,1.655804840201E-017,0.));
#303=CARTESIAN_POINT('',(2.22385750645877E-015,4.1,0.));
#304=CARTESIAN_POINT('Origin',(2.22044604925031E-015,1.6641254675387E-017,
0.));
#305=CARTESIAN_POINT('',(0.100000000000002,4.,-9.79717439317882E-016));
#306=CARTESIAN_POINT('Origin',(0.100000000000002,1.655804840201E-017,0.));
#307=CARTESIAN_POINT('Origin',(11.5625,7.02052931617888E-018,0.));
#308=CARTESIAN_POINT('',(19.2331875,4.,4.89858719658941E-016));
#309=CARTESIAN_POINT('Origin',(19.2331875,6.38036105038544E-019,0.));
#310=CARTESIAN_POINT('Origin',(2.22044604925031E-015,5.25,0.));
#311=CARTESIAN_POINT('',(2.22044604925031E-015,6.5,0.));
#312=CARTESIAN_POINT('Origin',(2.22044604925031E-015,1.6641254675387E-017,
0.));
#313=CARTESIAN_POINT('Origin',(19.61659375,3.19018052519271E-019,0.));
#314=CARTESIAN_POINT('',(20.,3.2331875,-3.95951272291823E-016));
#315=CARTESIAN_POINT('Origin',(20.,-2.16667118743564E-033,0.));
#316=CARTESIAN_POINT('Origin',(20.,2.,0.));
#317=CARTESIAN_POINT('Origin',(-7.2,2.26321063585263E-017,0.));
#318=CARTESIAN_POINT('',(-8.,5.7,0.));
#319=CARTESIAN_POINT('Origin',(-8.,2.32977565455418E-017,0.));
#320=CARTESIAN_POINT('',(-7.2,6.5,-1.59204083889156E-015));
#321=CARTESIAN_POINT('Origin',(-7.2,2.26321063585263E-017,0.));
#322=CARTESIAN_POINT('Origin',(-8.,4.98205080756888,0.));
#323=CARTESIAN_POINT('',(-8.,3.,-1.73205080756888));
#324=CARTESIAN_POINT('',(-8.,3.,1.73205080756887));
#325=CARTESIAN_POINT($,(-8.,3.,0.866025403784436));
#326=CARTESIAN_POINT('',(-8.,4.47527852035505E-016,3.46410161513775));
#327=CARTESIAN_POINT($,(-8.,0.750000000000001,3.03108891324553));
#328=CARTESIAN_POINT('',(-8.,-3.,1.73205080756888));
#329=CARTESIAN_POINT($,(-8.,-2.25,2.1650635094611));
#330=CARTESIAN_POINT('',(-8.,-3.,-1.73205080756888));
#331=CARTESIAN_POINT($,(-8.,-3.,-0.866025403784438));
#332=CARTESIAN_POINT('',(-8.,-3.94476074135305E-016,-3.46410161513775));
#333=CARTESIAN_POINT($,(-8.,-0.750000000000001,-3.03108891324554));
#334=CARTESIAN_POINT($,(-8.,2.25,-2.1650635094611));
#335=CARTESIAN_POINT('Origin',(-4.,1.99695056104644E-017,0.));
#336=CARTESIAN_POINT('Origin',(-8.,-3.94476074135305E-016,-3.46410161513775));
#337=CARTESIAN_POINT('',(-4.,-2.80884007091367E-016,-3.46410161513775));
#338=CARTESIAN_POINT('',(-4.,-3.,-1.73205080756888));
#339=CARTESIAN_POINT('Ctrl Pts',(-4.00000000000004,1.15167333424719E-013,
-3.46410161513782));
#340=CARTESIAN_POINT('Ctrl Pts',(-3.49999999999997,-1.5,-2.59807621135332));
#341=CARTESIAN_POINT('Ctrl Pts',(-4.00000000000004,-3.00000000000012,-1.73205080756881));
#342=CARTESIAN_POINT($,(-6.,-2.77555756156289E-016,-3.46410161513775));
#343=CARTESIAN_POINT($,(-6.,-3.,-1.73205080756888));
#344=CARTESIAN_POINT('Origin',(-8.,3.,-1.73205080756888));
#345=CARTESIAN_POINT('',(-4.,3.,-1.73205080756888));
#346=CARTESIAN_POINT('Ctrl Pts',(-4.00000000000004,3.00000000000012,-1.73205080756881));
#347=CARTESIAN_POINT('Ctrl Pts',(-3.49999999999997,1.5,-2.59807621135332));
#348=CARTESIAN_POINT('Ctrl Pts',(-4.00000000000004,-1.18257057502724E-013,
-3.46410161513782));
#349=CARTESIAN_POINT($,(-6.,3.,-1.73205080756888));
#350=CARTESIAN_POINT('Origin',(-8.,3.,1.73205080756887));
#351=CARTESIAN_POINT('',(-4.,3.,1.73205080756887));
#352=CARTESIAN_POINT('Ctrl Pts',(-4.00000000000004,3.,1.73205080756901));
#353=CARTESIAN_POINT('Ctrl Pts',(-3.49999999999997,3.,-4.02671592449801E-015));
#354=CARTESIAN_POINT('Ctrl Pts',(-4.00000000000004,3.,-1.73205080756901));
#355=CARTESIAN_POINT($,(-6.,3.,1.73205080756887));
#356=CARTESIAN_POINT('Origin',(-8.,7.60743070874833E-018,3.46410161513775));
#357=CARTESIAN_POINT('',(-4.,-5.58439763247656E-016,3.46410161513775));
#358=CARTESIAN_POINT('Ctrl Pts',(-4.00000000000004,-1.16869278721943E-013,
3.46410161513782));
#359=CARTESIAN_POINT('Ctrl Pts',(-3.49999999999997,1.5,2.59807621135331));
#360=CARTESIAN_POINT('Ctrl Pts',(-4.00000000000004,3.00000000000012,1.73205080756881));
#361=CARTESIAN_POINT($,(-6.,-5.55111512312578E-016,3.46410161513775));
#362=CARTESIAN_POINT('Origin',(-8.,-3.,-1.73205080756888));
#363=CARTESIAN_POINT('',(-4.,-3.,1.73205080756888));
#364=CARTESIAN_POINT('Ctrl Pts',(-4.00000000000004,-3.,-1.73205080756901));
#365=CARTESIAN_POINT('Ctrl Pts',(-3.49999999999997,-3.,-1.87468507535015E-016));
#366=CARTESIAN_POINT('Ctrl Pts',(-4.00000000000004,-3.,1.73205080756901));
#367=CARTESIAN_POINT($,(-6.,-3.,1.73205080756888));
#368=CARTESIAN_POINT('Origin',(-8.,-3.,1.73205080756888));
#369=CARTESIAN_POINT('Ctrl Pts',(-4.00000000000004,-3.00000000000011,1.73205080756881));
#370=CARTESIAN_POINT('Ctrl Pts',(-3.49999999999997,-1.5,2.59807621135332));
#371=CARTESIAN_POINT('Ctrl Pts',(-4.00000000000004,1.14889777668563E-013,
3.46410161513782));
#372=CARTESIAN_POINT('Origin',(-3.,1.9137442876695E-017,0.));
#373=UNCERTAINTY_MEASURE_WITH_UNIT(LENGTH_MEASURE(0.01),#375,
'DISTANCE_ACCURACY_VALUE',
'Maximum model space distance between geometric entities at asserted c
onnectivities');
#374=(
GEOMETRIC_REPRESENTATION_CONTEXT(3)
GLOBAL_UNCERTAINTY_ASSIGNED_CONTEXT((#373))
GLOBAL_UNIT_ASSIGNED_CONTEXT((#375,#378,#376))
REPRESENTATION_CONTEXT('','3D')
);
#375=(
LENGTH_UNIT()
NAMED_UNIT(*)
SI_UNIT(.MILLI.,.METRE.)
);
#376=(
NAMED_UNIT(*)
SI_UNIT($,.STERADIAN.)
SOLID_ANGLE_UNIT()
);
#377=DIMENSIONAL_EXPONENTS(0.,0.,0.,0.,0.,0.,0.);
#378=(
CONVERSION_BASED_UNIT('degree',#380)
NAMED_UNIT(#377)
PLANE_ANGLE_UNIT()
);
#379=(
NAMED_UNIT(*)
PLANE_ANGLE_UNIT()
SI_UNIT($,.RADIAN.)
);
#380=PLANE_ANGLE_MEASURE_WITH_UNIT(PLANE_ANGLE_MEASURE(0.01745329252),#379);
#381=SHAPE_DEFINITION_REPRESENTATION(#382,#383);
#382=PRODUCT_DEFINITION_SHAPE('',$,#385);
#383=SHAPE_REPRESENTATION('',(#220),#374);
#384=PRODUCT_DEFINITION_CONTEXT('3D Mechanical Parts',#388,'design');
#385=PRODUCT_DEFINITION('200820-1','200820-1',#386,#384);
#386=PRODUCT_DEFINITION_FORMATION('',$,#390);
#387=APPLICATION_PROTOCOL_DEFINITION('international standard',
'automotive_design',2009,#388);
#388=APPLICATION_CONTEXT(
'Core Data for Automotive Mechanical Design Process');
#389=PRODUCT_CONTEXT('3D Mechanical Parts',#388,'mechanical');
#390=PRODUCT('200820-1','200820-1',$,(#389));
#391=PRESENTATION_STYLE_ASSIGNMENT((#392));
#392=SURFACE_STYLE_USAGE(.BOTH.,#393);
#393=SURFACE_SIDE_STYLE($,(#394));
#394=SURFACE_STYLE_FILL_AREA(#395);
#395=FILL_AREA_STYLE($,(#396));
#396=FILL_AREA_STYLE_COLOUR($,#397);
#397=COLOUR_RGB('',0.63921568627451,0.63921568627451,0.686274509803922);
ENDSEC;
END-ISO-10303-21;
