ISO-10303-21;
HEADER;
/****************************************************************
 * Generated by software with PDE/Lib inside                    *
 * PDElib Version v51a, created Mon 03/22/2010                  *
 * International Technegroup Inc. (www.iti-oh.com)              *
 ****************************************************************/
FILE_DESCRIPTION((''),'2;1');
FILE_NAME('D:\\SAT-STEP\\STEP\\201220.stp','2011-02-04T06:33:49',('jaroslavr'),(''),'Autodesk Inventor 2010','Autodesk Inventor 2010','');
FILE_SCHEMA(('AUTOMOTIVE_DESIGN { 1 0 10303 214 1 1 1 1 }'));
ENDSEC;
DATA;
#5=APPLICATION_CONTEXT('automotive design');
#6=APPLICATION_PROTOCOL_DEFINITION('International Standard','automotive_design',2001,#5);
#7=PRODUCT_CONTEXT('',#5,'mechanical');
#8=PRODUCT('DIN 7984 M12 x 20','DIN 7984 M12 x 20',$,(#7));
#9=PRODUCT_RELATED_PRODUCT_CATEGORY('part',$,(#8));
#10=PRODUCT_DEFINITION_FORMATION('',$,#8);
#11=PRODUCT_DEFINITION_CONTEXT('part definition',#5,'design');
#12=PRODUCT_DEFINITION('',$,#10,#11);
#18=(NAMED_UNIT(*)PLANE_ANGLE_UNIT()SI_UNIT($,.RADIAN.));
#19=DIMENSIONAL_EXPONENTS(0.0,0.0,0.0,0.0,0.0,0.0,0.0);
#20=PLANE_ANGLE_MEASURE_WITH_UNIT(PLANE_ANGLE_MEASURE(0.017453292500000),#18);
#24=(CONVERSION_BASED_UNIT('DEGREE',#20)NAMED_UNIT(#19)PLANE_ANGLE_UNIT());
#28=(NAMED_UNIT(*)SI_UNIT($,.STERADIAN.)SOLID_ANGLE_UNIT());
#32=(LENGTH_UNIT()NAMED_UNIT(*)SI_UNIT(.MILLI.,.METRE.));
#34=UNCERTAINTY_MEASURE_WITH_UNIT(LENGTH_MEASURE(0.010000000000000),#32,'DISTANCE_ACCURACY_VALUE','');
#36=(GEOMETRIC_REPRESENTATION_CONTEXT(3)GLOBAL_UNCERTAINTY_ASSIGNED_CONTEXT((#34))GLOBAL_UNIT_ASSIGNED_CONTEXT((#24,#28,#32))REPRESENTATION_CONTEXT('None','None'));
#37=AXIS2_PLACEMENT_3D('',#38,#39,#40);
#38=CARTESIAN_POINT('',(0.0,0.0,0.0));
#39=DIRECTION('',(0.0,0.0,1.0));
#40=DIRECTION('',(1.0,0.0,0.0));
#41=SHAPE_REPRESENTATION('',(#37),#36);
#42=PRODUCT_DEFINITION_SHAPE('','',#12);
#43=SHAPE_DEFINITION_REPRESENTATION(#42,#41);
#49=(NAMED_UNIT(*)PLANE_ANGLE_UNIT()SI_UNIT($,.RADIAN.));
#50=DIMENSIONAL_EXPONENTS(0.0,0.0,0.0,0.0,0.0,0.0,0.0);
#51=PLANE_ANGLE_MEASURE_WITH_UNIT(PLANE_ANGLE_MEASURE(0.017453292500000),#49);
#55=(CONVERSION_BASED_UNIT('DEGREE',#51)NAMED_UNIT(#50)PLANE_ANGLE_UNIT());
#59=(NAMED_UNIT(*)SI_UNIT($,.STERADIAN.)SOLID_ANGLE_UNIT());
#63=(LENGTH_UNIT()NAMED_UNIT(*)SI_UNIT(.MILLI.,.METRE.));
#65=UNCERTAINTY_MEASURE_WITH_UNIT(LENGTH_MEASURE(0.000001000000000),#63,'DISTANCE_ACCURACY_VALUE','');
#67=(GEOMETRIC_REPRESENTATION_CONTEXT(3)GLOBAL_UNCERTAINTY_ASSIGNED_CONTEXT((#65))GLOBAL_UNIT_ASSIGNED_CONTEXT((#55,#59,#63))REPRESENTATION_CONTEXT('','3D'));
#68=CARTESIAN_POINT('',(0.100000000000003,-1.411128E-015,6.0));
#69=CARTESIAN_POINT('',(2.661474E-015,-1.414526E-015,6.0));
#70=CARTESIAN_POINT('',(2.664535E-015,-1.426773E-015,6.100000000000000));
#71=CARTESIAN_POINT('',(2.667597E-015,-1.439019E-015,6.200000000000000));
#72=CARTESIAN_POINT('',(0.100000000000003,-1.435621E-015,6.199999999999999));
#73=CARTESIAN_POINT('',(0.100000000000003,-6.0,5.999999999999998));
#74=CARTESIAN_POINT('',(2.865395E-015,-6.0,5.999999999999997));
#75=CARTESIAN_POINT('',(2.871855E-015,-6.100000000000001,6.099999999999998));
#76=CARTESIAN_POINT('',(2.878316E-015,-6.199999999999999,6.199999999999997));
#77=CARTESIAN_POINT('',(0.100000000000003,-6.200000000000000,6.199999999999996));
#78=CARTESIAN_POINT('',(0.100000000000003,-6.000000000000001,-7.347881E-016));
#79=CARTESIAN_POINT('',(2.868457E-015,-6.000000000000001,-7.347881E-016));
#80=CARTESIAN_POINT('',(2.871855E-015,-6.100000000000001,-7.470345E-016));
#81=CARTESIAN_POINT('',(2.875254E-015,-6.200000000000000,-7.592810E-016));
#82=CARTESIAN_POINT('',(0.100000000000003,-6.200000000000000,-7.592810E-016));
#83=CARTESIAN_POINT('',(0.100000000000003,-5.999999999999998,-5.999999999999999));
#84=CARTESIAN_POINT('',(2.871518E-015,-5.999999999999998,-5.999999999999999));
#85=CARTESIAN_POINT('',(2.871855E-015,-6.099999999999998,-6.099999999999999));
#86=CARTESIAN_POINT('',(2.872192E-015,-6.199999999999998,-6.199999999999998));
#87=CARTESIAN_POINT('',(0.100000000000003,-6.199999999999998,-6.199999999999998));
#88=CARTESIAN_POINT('',(0.100000000000003,5.844854E-017,-6.0));
#89=CARTESIAN_POINT('',(2.667597E-015,5.504985E-017,-6.0));
#90=CARTESIAN_POINT('',(2.664535E-015,6.729631E-017,-6.100000000000000));
#91=CARTESIAN_POINT('',(2.661474E-015,7.954278E-017,-6.200000000000000));
#92=CARTESIAN_POINT('',(0.100000000000003,8.294147E-017,-6.199999999999999));
#93=CARTESIAN_POINT('',(0.100000000000002,5.999999999999998,-5.999999999999998));
#94=CARTESIAN_POINT('',(2.463675E-015,5.999999999999998,-5.999999999999997));
#95=CARTESIAN_POINT('',(2.457215E-015,6.099999999999998,-6.099999999999998));
#96=CARTESIAN_POINT('',(2.450755E-015,6.199999999999998,-6.199999999999997));
#97=CARTESIAN_POINT('',(0.100000000000003,6.199999999999998,-6.199999999999996));
#98=CARTESIAN_POINT('',(0.100000000000002,5.999999999999999,7.347881E-016));
#99=CARTESIAN_POINT('',(2.460614E-015,6.0,7.347881E-016));
#100=CARTESIAN_POINT('',(2.457215E-015,6.099999999999999,7.470345E-016));
#101=CARTESIAN_POINT('',(2.453816E-015,6.199999999999998,7.592810E-016));
#102=CARTESIAN_POINT('',(0.100000000000003,6.199999999999998,7.592810E-016));
#103=CARTESIAN_POINT('',(0.100000000000002,5.999999999999996,5.999999999999999));
#104=CARTESIAN_POINT('',(2.457552E-015,5.999999999999996,5.999999999999999));
#105=CARTESIAN_POINT('',(2.457215E-015,6.099999999999996,6.099999999999999));
#106=CARTESIAN_POINT('',(2.456878E-015,6.199999999999996,6.199999999999998));
#107=CARTESIAN_POINT('',(0.100000000000003,6.199999999999996,6.199999999999998));
#108=CARTESIAN_POINT('',(0.100000000000003,-1.411128E-015,6.0));
#109=CARTESIAN_POINT('',(2.661474E-015,-1.414526E-015,6.0));
#110=CARTESIAN_POINT('',(2.664535E-015,-1.426773E-015,6.100000000000000));
#111=CARTESIAN_POINT('',(2.667597E-015,-1.439019E-015,6.200000000000000));
#112=CARTESIAN_POINT('',(0.100000000000003,-1.435621E-015,6.199999999999999));
#120=(BOUNDED_SURFACE()B_SPLINE_SURFACE(2,2,((#68,#73,#78,#83,#88,#93,#98,#103,#108),(#69,#74,#79,#84,#89,#94,#99,#104,#109),(#70,#75,#80,#85,#90,#95,#100,#105,#110),(#71,#76,#81,#86,#91,#96,#101,#106,#111),(#72,#77,#82,#87,#92,#97,#102,#107,#112)),.UNSPECIFIED.,.F.,.T.,.U.)B_SPLINE_SURFACE_WITH_KNOTS((3,2,3),(3,2,2,2,3),(-3.141592653589797,-1.570796326794897,4.154870E-015),(0.0,1.570796326794897,3.141592653589793,4.712388980384690,6.283185307179586),.UNSPECIFIED.)GEOMETRIC_REPRESENTATION_ITEM()RATIONAL_B_SPLINE_SURFACE(((1.0,0.707106781186548,1.0,0.707106781186548,1.0,0.707106781186548,1.0,0.707106781186548,1.0),(0.707106781186550,0.500000000000002,0.707106781186550,0.500000000000002,0.707106781186550,0.500000000000002,0.707106781186550,0.500000000000002,0.707106781186550),(1.0,0.707106781186548,1.0,0.707106781186548,1.0,0.707106781186548,1.0,0.707106781186548,1.0),(0.707106781186550,0.500000000000002,0.707106781186550,0.500000000000002,0.707106781186550,0.500000000000002,0.707106781186550,0.500000000000002,0.707106781186550),(1.0,0.707106781186548,1.0,0.707106781186548,1.0,0.707106781186548,1.0,0.707106781186548,1.0)))REPRESENTATION_ITEM('')SURFACE());
#121=CARTESIAN_POINT('',(2.273334E-015,6.099999999999999,0.0));
#122=VERTEX_POINT('',#121);
#123=CARTESIAN_POINT('',(2.480655E-015,-6.797382E-016,0.0));
#124=DIRECTION('',(1.0,0.0,0.0));
#125=DIRECTION('',(0.0,-1.0,0.0));
#126=AXIS2_PLACEMENT_3D('',#123,#124,#125);
#127=CIRCLE('',#126,6.100000000000000);
#128=EDGE_CURVE('',#122,#122,#127,.T.);
#129=ORIENTED_EDGE('',*,*,#128,.T.);
#130=EDGE_LOOP('',(#129));
#131=FACE_OUTER_BOUND('',#130,.T.);
#132=CARTESIAN_POINT('',(0.100000000000002,5.999999999999998,-1.469576E-015));
#133=VERTEX_POINT('',#132);
#134=CARTESIAN_POINT('',(0.100000000000002,-6.763395E-016,0.0));
#135=DIRECTION('',(-1.0,0.0,0.0));
#136=DIRECTION('',(0.0,-1.0,0.0));
#137=AXIS2_PLACEMENT_3D('',#134,#135,#136);
#138=CIRCLE('',#137,6.0);
#139=EDGE_CURVE('',#133,#133,#138,.T.);
#140=ORIENTED_EDGE('',*,*,#139,.T.);
#141=EDGE_LOOP('',(#140));
#142=FACE_BOUND('',#141,.T.);
#143=ADVANCED_FACE('',(#131,#142),#120,.T.);
#144=CARTESIAN_POINT('',(12.625000000000000,-2.506535E-016,0.0));
#145=DIRECTION('',(1.0,3.398691E-017,0.0));
#146=DIRECTION('',(0.0,1.0,0.0));
#147=AXIS2_PLACEMENT_3D('',#144,#145,#146);
#148=CYLINDRICAL_SURFACE('',#147,6.0);
#149=CARTESIAN_POINT('',(18.926462500000000,6.0,7.347881E-016));
#150=VERTEX_POINT('',#149);
#151=CARTESIAN_POINT('',(18.926462500000000,-3.648622E-017,0.0));
#152=DIRECTION('',(1.0,0.0,0.0));
#153=DIRECTION('',(0.0,-1.0,0.0));
#154=AXIS2_PLACEMENT_3D('',#151,#152,#153);
#155=CIRCLE('',#154,6.0);
#156=EDGE_CURVE('',#150,#150,#155,.T.);
#157=ORIENTED_EDGE('',*,*,#156,.F.);
#158=EDGE_LOOP('',(#157));
#159=FACE_OUTER_BOUND('',#158,.T.);
#160=ORIENTED_EDGE('',*,*,#139,.F.);
#161=EDGE_LOOP('',(#160));
#162=FACE_BOUND('',#161,.T.);
#163=ADVANCED_FACE('',(#159,#162),#148,.T.);
#164=CARTESIAN_POINT('',(2.220446E-015,7.500000000000002,0.0));
#165=DIRECTION('',(1.0,0.0,0.0));
#166=DIRECTION('',(0.0,0.0,-1.0));
#167=AXIS2_PLACEMENT_3D('',#164,#165,#166);
#168=PLANE('',#167);
#169=CARTESIAN_POINT('',(2.220446E-015,9.000000000000002,0.0));
#170=VERTEX_POINT('',#169);
#171=CARTESIAN_POINT('',(2.220446E-015,-6.797382E-016,0.0));
#172=DIRECTION('',(1.0,0.0,0.0));
#173=DIRECTION('',(0.0,1.0,0.0));
#174=AXIS2_PLACEMENT_3D('',#171,#172,#173);
#175=CIRCLE('',#174,9.000000000000004);
#176=EDGE_CURVE('',#170,#170,#175,.T.);
#177=ORIENTED_EDGE('',*,*,#176,.T.);
#178=EDGE_LOOP('',(#177));
#179=FACE_OUTER_BOUND('',#178,.T.);
#180=ORIENTED_EDGE('',*,*,#128,.F.);
#181=EDGE_LOOP('',(#180));
#182=FACE_BOUND('',#181,.T.);
#183=ADVANCED_FACE('',(#179,#182),#168,.T.);
#184=CARTESIAN_POINT('',(19.463231250000000,-1.824311E-017,0.0));
#185=DIRECTION('',(-1.0,-3.398691E-017,0.0));
#186=DIRECTION('',(0.0,-1.0,0.0));
#187=AXIS2_PLACEMENT_3D('',#184,#185,#186);
#188=CONICAL_SURFACE('',#187,5.463231250000000,44.999999999999943);
#189=ORIENTED_EDGE('',*,*,#156,.T.);
#190=EDGE_LOOP('',(#189));
#191=FACE_OUTER_BOUND('',#190,.T.);
#192=CARTESIAN_POINT('',(20.0,4.926462500000000,-6.033177E-016));
#193=VERTEX_POINT('',#192);
#194=CARTESIAN_POINT('',(20.0,7.703720E-033,0.0));
#195=DIRECTION('',(-1.0,0.0,0.0));
#196=DIRECTION('',(0.0,-1.0,0.0));
#197=AXIS2_PLACEMENT_3D('',#194,#195,#196);
#198=CIRCLE('',#197,4.926462500000000);
#199=EDGE_CURVE('',#193,#193,#198,.T.);
#200=ORIENTED_EDGE('',*,*,#199,.T.);
#201=EDGE_LOOP('',(#200));
#202=FACE_BOUND('',#201,.T.);
#203=ADVANCED_FACE('',(#191,#202),#188,.T.);
#204=CARTESIAN_POINT('',(20.0,3.000000000000000,0.0));
#205=DIRECTION('',(1.0,0.0,0.0));
#206=DIRECTION('',(0.0,0.0,-1.0));
#207=AXIS2_PLACEMENT_3D('',#204,#205,#206);
#208=PLANE('',#207);
#209=ORIENTED_EDGE('',*,*,#199,.F.);
#210=EDGE_LOOP('',(#209));
#211=FACE_OUTER_BOUND('',#210,.T.);
#212=ADVANCED_FACE('',(#211),#208,.T.);
#213=CARTESIAN_POINT('',(-5.799999999999997,-8.768623E-016,0.0));
#214=DIRECTION('',(1.0,3.398691E-017,0.0));
#215=DIRECTION('',(0.0,0.0,-1.0));
#216=AXIS2_PLACEMENT_3D('',#213,#214,#215);
#217=TOROIDAL_SURFACE('',#216,7.800000000000003,1.200000000000000);
#218=CARTESIAN_POINT('',(-6.999999999999997,7.800000000000002,0.0));
#219=VERTEX_POINT('',#218);
#220=CARTESIAN_POINT('',(-6.999999999999997,-9.176466E-016,0.0));
#221=DIRECTION('',(1.0,0.0,0.0));
#222=DIRECTION('',(0.0,-1.0,0.0));
#223=AXIS2_PLACEMENT_3D('',#220,#221,#222);
#224=CIRCLE('',#223,7.800000000000003);
#225=EDGE_CURVE('',#219,#219,#224,.T.);
#226=ORIENTED_EDGE('',*,*,#225,.T.);
#227=EDGE_LOOP('',(#226));
#228=FACE_OUTER_BOUND('',#227,.T.);
#229=CARTESIAN_POINT('',(-5.799999999999997,9.000000000000002,-2.204364E-015));
#230=VERTEX_POINT('',#229);
#231=CARTESIAN_POINT('',(-5.799999999999997,-8.768623E-016,0.0));
#232=DIRECTION('',(-1.0,0.0,0.0));
#233=DIRECTION('',(0.0,-1.0,0.0));
#234=AXIS2_PLACEMENT_3D('',#231,#232,#233);
#235=CIRCLE('',#234,9.000000000000002);
#236=EDGE_CURVE('',#230,#230,#235,.T.);
#237=ORIENTED_EDGE('',*,*,#236,.T.);
#238=EDGE_LOOP('',(#237));
#239=FACE_BOUND('',#238,.T.);
#240=ADVANCED_FACE('',(#228,#239),#217,.T.);
#241=CARTESIAN_POINT('',(-6.999999999999997,6.809401076758503,0.0));
#242=DIRECTION('',(-1.0,0.0,0.0));
#243=DIRECTION('',(0.0,0.0,1.0));
#244=AXIS2_PLACEMENT_3D('',#241,#242,#243);
#245=PLANE('',#244);
#246=ORIENTED_EDGE('',*,*,#225,.F.);
#247=EDGE_LOOP('',(#246));
#248=FACE_OUTER_BOUND('',#247,.T.);
#249=CARTESIAN_POINT('',(-6.999999999999997,3.999999999999997,-2.309401076758507));
#250=VERTEX_POINT('',#249);
#251=CARTESIAN_POINT('',(-6.999999999999997,4.000000000000004,2.309401076758497));
#252=VERTEX_POINT('',#251);
#253=CARTESIAN_POINT('',(-6.999999999999997,3.999999999999998,-2.309401076758507));
#254=DIRECTION('',(0.0,0.0,1.0));
#255=VECTOR('',#254,4.618802153517004);
#256=LINE('',#253,#255);
#257=EDGE_CURVE('',#250,#252,#256,.T.);
#258=ORIENTED_EDGE('',*,*,#257,.T.);
#259=CARTESIAN_POINT('',(-6.999999999999997,-3.520065E-016,4.618802153517007));
#260=VERTEX_POINT('',#259);
#261=CARTESIAN_POINT('',(-6.999999999999997,4.000000000000004,2.309401076758497));
#262=DIRECTION('',(0.0,-0.866025403784438,0.500000000000001));
#263=VECTOR('',#262,4.618802153517014);
#264=LINE('',#261,#263);
#265=EDGE_CURVE('',#252,#260,#264,.T.);
#266=ORIENTED_EDGE('',*,*,#265,.T.);
#267=CARTESIAN_POINT('',(-6.999999999999997,-4.000000000000002,2.309401076758504));
#268=VERTEX_POINT('',#267);
#269=CARTESIAN_POINT('',(-6.999999999999997,0.0,4.618802153517008));
#270=DIRECTION('',(0.0,-0.866025403784439,-0.500000000000000));
#271=VECTOR('',#270,4.618802153517009);
#272=LINE('',#269,#271);
#273=EDGE_CURVE('',#260,#268,#272,.T.);
#274=ORIENTED_EDGE('',*,*,#273,.T.);
#275=CARTESIAN_POINT('',(-6.999999999999997,-4.000000000000003,-2.309401076758502));
#276=VERTEX_POINT('',#275);
#277=CARTESIAN_POINT('',(-6.999999999999997,-4.000000000000003,2.309401076758505));
#278=DIRECTION('',(0.0,0.0,-1.0));
#279=VECTOR('',#278,4.618802153517007);
#280=LINE('',#277,#279);
#281=EDGE_CURVE('',#268,#276,#280,.T.);
#282=ORIENTED_EDGE('',*,*,#281,.T.);
#283=CARTESIAN_POINT('',(-6.999999999999997,-1.474678E-015,-4.618802153517007));
#284=VERTEX_POINT('',#283);
#285=CARTESIAN_POINT('',(-6.999999999999997,-4.000000000000004,-2.309401076758503));
#286=DIRECTION('',(0.0,0.866025403784439,-0.500000000000000));
#287=VECTOR('',#286,4.618802153517009);
#288=LINE('',#285,#287);
#289=EDGE_CURVE('',#276,#284,#288,.T.);
#290=ORIENTED_EDGE('',*,*,#289,.T.);
#291=CARTESIAN_POINT('',(-6.999999999999997,-1.776357E-015,-4.618802153517007));
#292=DIRECTION('',(0.0,0.866025403784439,0.500000000000000));
#293=VECTOR('',#292,4.618802153517004);
#294=LINE('',#291,#293);
#295=EDGE_CURVE('',#284,#250,#294,.T.);
#296=ORIENTED_EDGE('',*,*,#295,.T.);
#297=EDGE_LOOP('',(#258,#266,#274,#282,#290,#296));
#298=FACE_BOUND('',#297,.T.);
#299=ADVANCED_FACE('',(#248,#298),#245,.T.);
#300=CARTESIAN_POINT('',(-3.499999999999996,-7.986924E-016,0.0));
#301=DIRECTION('',(1.0,3.398691E-017,0.0));
#302=DIRECTION('',(0.0,1.0,0.0));
#303=AXIS2_PLACEMENT_3D('',#300,#301,#302);
#304=CYLINDRICAL_SURFACE('',#303,9.000000000000002);
#305=ORIENTED_EDGE('',*,*,#176,.F.);
#306=EDGE_LOOP('',(#305));
#307=FACE_OUTER_BOUND('',#306,.T.);
#308=ORIENTED_EDGE('',*,*,#236,.F.);
#309=EDGE_LOOP('',(#308));
#310=FACE_BOUND('',#309,.T.);
#311=ADVANCED_FACE('',(#307,#310),#304,.T.);
#312=CARTESIAN_POINT('',(-6.999999999999997,-1.474678E-015,-4.618802153517007));
#313=DIRECTION('',(1.699346E-017,-0.500000000000000,-0.866025403784439));
#314=DIRECTION('',(-1.0,0.0,0.0));
#315=AXIS2_PLACEMENT_3D('',#312,#313,#314);
#316=PLANE('',#315);
#317=CARTESIAN_POINT('',(-2.000000000000000,-2.050511E-015,-4.618802153517007));
#318=VERTEX_POINT('',#317);
#319=CARTESIAN_POINT('',(-1.999999999999999,-4.000000000000002,-2.309401076758503));
#320=VERTEX_POINT('',#319);
#321=CARTESIAN_POINT('',(-1.999999999999997,-1.072271E-014,-4.618802153517003));
#322=CARTESIAN_POINT('',(-1.333333333333334,-2.000000000000003,-3.464101615137756));
#323=CARTESIAN_POINT('',(-1.999999999999997,-3.999999999999994,-2.309401076758508));
#331=(BOUNDED_CURVE()B_SPLINE_CURVE(2,(#321,#322,#323),.UNSPECIFIED.,.F.,.U.)B_SPLINE_CURVE_WITH_KNOTS((3,3),(0.0,0.467374455231165),.UNSPECIFIED.)CURVE()GEOMETRIC_REPRESENTATION_ITEM()RATIONAL_B_SPLINE_CURVE((1.0,1.154700538379247,1.0))REPRESENTATION_ITEM(''));
#332=EDGE_CURVE('',#318,#320,#331,.T.);
#333=ORIENTED_EDGE('',*,*,#332,.F.);
#334=CARTESIAN_POINT('',(-2.000000000000000,-2.135479E-015,-4.618802153517007));
#335=DIRECTION('',(-1.0,0.0,0.0));
#336=VECTOR('',#335,4.999999999999998);
#337=LINE('',#334,#336);
#338=EDGE_CURVE('',#318,#284,#337,.T.);
#339=ORIENTED_EDGE('',*,*,#338,.T.);
#340=ORIENTED_EDGE('',*,*,#289,.F.);
#341=CARTESIAN_POINT('',(-1.999999999999999,-4.000000000000002,-2.309401076758503));
#342=DIRECTION('',(-1.0,0.0,0.0));
#343=VECTOR('',#342,4.999999999999998);
#344=LINE('',#341,#343);
#345=EDGE_CURVE('',#320,#276,#344,.T.);
#346=ORIENTED_EDGE('',*,*,#345,.F.);
#347=EDGE_LOOP('',(#333,#339,#340,#346));
#348=FACE_OUTER_BOUND('',#347,.T.);
#349=ADVANCED_FACE('',(#348),#316,.F.);
#350=CARTESIAN_POINT('',(-6.999999999999997,3.999999999999997,-2.309401076758507));
#351=DIRECTION('',(-1.699346E-017,0.500000000000000,-0.866025403784439));
#352=DIRECTION('',(-1.0,0.0,0.0));
#353=AXIS2_PLACEMENT_3D('',#350,#351,#352);
#354=PLANE('',#353);
#355=CARTESIAN_POINT('',(-2.000000000000000,3.999999999999999,-2.309401076758507));
#356=VERTEX_POINT('',#355);
#357=CARTESIAN_POINT('',(-1.999999999999997,3.999999999999991,-2.309401076758511));
#358=CARTESIAN_POINT('',(-1.333333333333334,2.000000000000000,-3.464101615137756));
#359=CARTESIAN_POINT('',(-1.999999999999997,5.375528E-015,-4.618802153517003));
#367=(BOUNDED_CURVE()B_SPLINE_CURVE(2,(#357,#358,#359),.UNSPECIFIED.,.F.,.U.)B_SPLINE_CURVE_WITH_KNOTS((3,3),(0.0,0.467374455231166),.UNSPECIFIED.)CURVE()GEOMETRIC_REPRESENTATION_ITEM()RATIONAL_B_SPLINE_CURVE((1.0,1.154700538379246,1.0))REPRESENTATION_ITEM(''));
#368=EDGE_CURVE('',#356,#318,#367,.T.);
#369=ORIENTED_EDGE('',*,*,#368,.F.);
#370=CARTESIAN_POINT('',(-2.000000000000000,3.999999999999998,-2.309401076758507));
#371=DIRECTION('',(-1.0,0.0,0.0));
#372=VECTOR('',#371,4.999999999999998);
#373=LINE('',#370,#372);
#374=EDGE_CURVE('',#356,#250,#373,.T.);
#375=ORIENTED_EDGE('',*,*,#374,.T.);
#376=ORIENTED_EDGE('',*,*,#295,.F.);
#377=ORIENTED_EDGE('',*,*,#338,.F.);
#378=EDGE_LOOP('',(#369,#375,#376,#377));
#379=FACE_OUTER_BOUND('',#378,.T.);
#380=ADVANCED_FACE('',(#379),#354,.F.);
#381=CARTESIAN_POINT('',(-6.999999999999997,4.000000000000004,2.309401076758497));
#382=DIRECTION('',(0.0,1.0,0.0));
#383=DIRECTION('',(0.0,0.0,1.0));
#384=AXIS2_PLACEMENT_3D('',#381,#382,#383);
#385=PLANE('',#384);
#386=CARTESIAN_POINT('',(-2.0,4.000000000000005,2.309401076758496));
#387=VERTEX_POINT('',#386);
#388=CARTESIAN_POINT('',(-1.999999999999997,4.000000000000004,2.309401076758490));
#389=CARTESIAN_POINT('',(-1.333333333333334,4.000000000000001,-5.714238E-015));
#390=CARTESIAN_POINT('',(-1.999999999999997,3.999999999999998,-2.309401076758500));
#398=(BOUNDED_CURVE()B_SPLINE_CURVE(2,(#388,#389,#390),.UNSPECIFIED.,.F.,.U.)B_SPLINE_CURVE_WITH_KNOTS((3,3),(0.0,0.467374455231166),.UNSPECIFIED.)CURVE()GEOMETRIC_REPRESENTATION_ITEM()RATIONAL_B_SPLINE_CURVE((1.0,1.154700538379247,1.0))REPRESENTATION_ITEM(''));
#399=EDGE_CURVE('',#387,#356,#398,.T.);
#400=ORIENTED_EDGE('',*,*,#399,.F.);
#401=CARTESIAN_POINT('',(-2.0,4.000000000000004,2.309401076758496));
#402=DIRECTION('',(-1.0,0.0,0.0));
#403=VECTOR('',#402,4.999999999999997);
#404=LINE('',#401,#403);
#405=EDGE_CURVE('',#387,#252,#404,.T.);
#406=ORIENTED_EDGE('',*,*,#405,.T.);
#407=ORIENTED_EDGE('',*,*,#257,.F.);
#408=ORIENTED_EDGE('',*,*,#374,.F.);
#409=EDGE_LOOP('',(#400,#406,#407,#408));
#410=FACE_OUTER_BOUND('',#409,.T.);
#411=ADVANCED_FACE('',(#410),#385,.F.);
#412=CARTESIAN_POINT('',(-6.999999999999997,-2.379084E-016,4.618802153517007));
#413=DIRECTION('',(-1.699346E-017,0.500000000000001,0.866025403784438));
#414=DIRECTION('',(1.0,0.0,0.0));
#415=AXIS2_PLACEMENT_3D('',#412,#413,#414);
#416=PLANE('',#415);
#417=CARTESIAN_POINT('',(-2.000000000000000,-1.076212E-016,4.618802153517008));
#418=VERTEX_POINT('',#417);
#419=CARTESIAN_POINT('',(-1.999999999999997,7.873530E-015,4.618802153517003));
#420=CARTESIAN_POINT('',(-1.333333333333333,2.000000000000002,3.464101615137753));
#421=CARTESIAN_POINT('',(-1.999999999999997,3.999999999999997,2.309401076758502));
#429=(BOUNDED_CURVE()B_SPLINE_CURVE(2,(#419,#420,#421),.UNSPECIFIED.,.F.,.U.)B_SPLINE_CURVE_WITH_KNOTS((3,3),(0.0,0.467374455231166),.UNSPECIFIED.)CURVE()GEOMETRIC_REPRESENTATION_ITEM()RATIONAL_B_SPLINE_CURVE((1.0,1.154700538379251,1.0))REPRESENTATION_ITEM(''));
#430=EDGE_CURVE('',#418,#387,#429,.T.);
#431=ORIENTED_EDGE('',*,*,#430,.F.);
#432=CARTESIAN_POINT('',(-6.999999999999997,-3.625230E-016,4.618802153517008));
#433=DIRECTION('',(1.0,0.0,0.0));
#434=VECTOR('',#433,4.999999999999997);
#435=LINE('',#432,#434);
#436=EDGE_CURVE('',#260,#418,#435,.T.);
#437=ORIENTED_EDGE('',*,*,#436,.F.);
#438=ORIENTED_EDGE('',*,*,#265,.F.);
#439=ORIENTED_EDGE('',*,*,#405,.F.);
#440=EDGE_LOOP('',(#431,#437,#438,#439));
#441=FACE_OUTER_BOUND('',#440,.T.);
#442=ADVANCED_FACE('',(#441),#416,.F.);
#443=CARTESIAN_POINT('',(-6.999999999999997,-4.000000000000003,-2.309401076758502));
#444=DIRECTION('',(0.0,-1.0,0.0));
#445=DIRECTION('',(0.0,0.0,-1.0));
#446=AXIS2_PLACEMENT_3D('',#443,#444,#445);
#447=PLANE('',#446);
#448=CARTESIAN_POINT('',(-1.999999999999999,-4.000000000000002,2.309401076758503));
#449=VERTEX_POINT('',#448);
#450=CARTESIAN_POINT('',(-1.999999999999998,-4.000000000000003,-2.309401076758496));
#451=CARTESIAN_POINT('',(-1.333333333333334,-4.000000000000003,2.775558E-016));
#452=CARTESIAN_POINT('',(-1.999999999999998,-4.000000000000003,2.309401076758497));
#460=(BOUNDED_CURVE()B_SPLINE_CURVE(2,(#450,#451,#452),.UNSPECIFIED.,.F.,.U.)B_SPLINE_CURVE_WITH_KNOTS((3,3),(0.0,0.467374455231166),.UNSPECIFIED.)CURVE()GEOMETRIC_REPRESENTATION_ITEM()RATIONAL_B_SPLINE_CURVE((1.0,1.154700538379255,1.0))REPRESENTATION_ITEM(''));
#461=EDGE_CURVE('',#320,#449,#460,.T.);
#462=ORIENTED_EDGE('',*,*,#461,.F.);
#463=ORIENTED_EDGE('',*,*,#345,.T.);
#464=ORIENTED_EDGE('',*,*,#281,.F.);
#465=CARTESIAN_POINT('',(-1.999999999999999,-4.000000000000003,2.309401076758503));
#466=DIRECTION('',(-1.0,0.0,0.0));
#467=VECTOR('',#466,4.999999999999998);
#468=LINE('',#465,#467);
#469=EDGE_CURVE('',#449,#268,#468,.T.);
#470=ORIENTED_EDGE('',*,*,#469,.F.);
#471=EDGE_LOOP('',(#462,#463,#464,#470));
#472=FACE_OUTER_BOUND('',#471,.T.);
#473=ADVANCED_FACE('',(#472),#447,.F.);
#474=CARTESIAN_POINT('',(-6.999999999999997,-4.000000000000002,2.309401076758504));
#475=DIRECTION('',(1.699346E-017,-0.500000000000000,0.866025403784439));
#476=DIRECTION('',(1.0,0.0,0.0));
#477=AXIS2_PLACEMENT_3D('',#474,#475,#476);
#478=PLANE('',#477);
#479=CARTESIAN_POINT('',(-1.999999999999998,-3.999999999999996,2.309401076758508));
#480=CARTESIAN_POINT('',(-1.333333333333334,-2.000000000000001,3.464101615137755));
#481=CARTESIAN_POINT('',(-1.999999999999998,-7.114481E-015,4.618802153517003));
#489=(BOUNDED_CURVE()B_SPLINE_CURVE(2,(#479,#480,#481),.UNSPECIFIED.,.F.,.U.)B_SPLINE_CURVE_WITH_KNOTS((3,3),(0.0,0.467374455231166),.UNSPECIFIED.)CURVE()GEOMETRIC_REPRESENTATION_ITEM()RATIONAL_B_SPLINE_CURVE((1.0,1.154700538379256,1.0))REPRESENTATION_ITEM(''));
#490=EDGE_CURVE('',#449,#418,#489,.T.);
#491=ORIENTED_EDGE('',*,*,#490,.F.);
#492=ORIENTED_EDGE('',*,*,#469,.T.);
#493=ORIENTED_EDGE('',*,*,#273,.F.);
#494=ORIENTED_EDGE('',*,*,#436,.T.);
#495=EDGE_LOOP('',(#491,#492,#493,#494));
#496=FACE_OUTER_BOUND('',#495,.T.);
#497=ADVANCED_FACE('',(#496),#478,.F.);
#498=CARTESIAN_POINT('',(-0.666666666666664,-7.023962E-016,0.0));
#499=DIRECTION('',(-1.0,-3.398691E-017,0.0));
#500=DIRECTION('',(0.0,1.0,0.0));
#501=AXIS2_PLACEMENT_3D('',#498,#499,#500);
#502=CONICAL_SURFACE('',#501,2.309401076758503,59.999999999999972);
#503=ORIENTED_EDGE('',*,*,#430,.T.);
#504=ORIENTED_EDGE('',*,*,#399,.T.);
#505=ORIENTED_EDGE('',*,*,#368,.T.);
#506=ORIENTED_EDGE('',*,*,#332,.T.);
#507=ORIENTED_EDGE('',*,*,#461,.T.);
#508=ORIENTED_EDGE('',*,*,#490,.T.);
#509=EDGE_LOOP('',(#503,#504,#505,#506,#507,#508));
#510=FACE_OUTER_BOUND('',#509,.T.);
#511=ADVANCED_FACE('',(#510),#502,.F.);
#512=CLOSED_SHELL('',(#143,#163,#183,#203,#212,#240,#299,#311,#349,#380,#411,#442,#473,#497,#511));
#513=MANIFOLD_SOLID_BREP('Solid1',#512);
#514=COLOUR_RGB('Kov-Ocel',0.639216005802155,0.639216005802155,0.686275005340576);
#515=FILL_AREA_STYLE_COLOUR('Kov-Ocel',#514);
#516=FILL_AREA_STYLE('Kov-Ocel',(#515));
#517=SURFACE_STYLE_FILL_AREA(#516);
#518=SURFACE_SIDE_STYLE('Kov-Ocel',(#517));
#519=SURFACE_STYLE_USAGE(.BOTH.,#518);
#520=PRESENTATION_STYLE_ASSIGNMENT((#519));
#521=STYLED_ITEM('',(#520),#513);
#522=MECHANICAL_DESIGN_GEOMETRIC_PRESENTATION_REPRESENTATION('',(#521),#36);
#523=ADVANCED_BREP_SHAPE_REPRESENTATION('ABSR',(#513),#36);
#524=SHAPE_REPRESENTATION_RELATIONSHIP('SRR','None',#523,#41);
ENDSEC;
END-ISO-10303-21;
