ISO-10303-21;
HEADER;
/* Generated by software containing ST-Developer
 * from STEP Tools, Inc. (www.steptools.com) 
 */

FILE_DESCRIPTION(
/* description */ ('Maticov\X\FD profil pro modul 40'),
/* implementation_level */ '2;1');

FILE_NAME(
/* name */ 
'K:\\Katalog - Elektronick\X\FD\\STEP-sum\X\E1rn\X2\011B\X0\\\Natahova
c\X\ED d\X\EDly_19-08\\210000.stp',
/* time_stamp */ '2014-08-19T08:41:16+02:00',
/* author */ ('jank'),
/* organization */ (''),
/* preprocessor_version */ 'ST-DEVELOPER v15.2',
/* originating_system */ 'Autodesk Inventor 2014',
/* authorisation */ '');

FILE_SCHEMA (('CONFIG_CONTROL_DESIGN'));
ENDSEC;

DATA;
#10=SHAPE_REPRESENTATION_RELATIONSHIP('SRR','None',#313,#11);
#11=ADVANCED_BREP_SHAPE_REPRESENTATION($,(#186),#304);
#12=STYLED_ITEM($,(#321),#186);
#13=CIRCLE($,#190,20.0124066939012);
#14=CIRCLE($,#191,20.0124066939012);
#15=CIRCLE($,#198,20.012406693901);
#16=CIRCLE($,#199,20.012406693901);
#17=CYLINDRICAL_SURFACE($,#189,20.0124066939012);
#18=CYLINDRICAL_SURFACE($,#197,20.012406693901);
#19=FACE_OUTER_BOUND($,#29,.T.);
#20=FACE_OUTER_BOUND($,#30,.T.);
#21=FACE_OUTER_BOUND($,#31,.T.);
#22=FACE_OUTER_BOUND($,#32,.T.);
#23=FACE_OUTER_BOUND($,#33,.T.);
#24=FACE_OUTER_BOUND($,#34,.T.);
#25=FACE_OUTER_BOUND($,#35,.T.);
#26=FACE_OUTER_BOUND($,#36,.T.);
#27=FACE_OUTER_BOUND($,#37,.T.);
#28=FACE_OUTER_BOUND($,#38,.T.);
#29=EDGE_LOOP($,(#119,#120,#121,#122));
#30=EDGE_LOOP($,(#123,#124,#125,#126));
#31=EDGE_LOOP($,(#127,#128,#129,#130));
#32=EDGE_LOOP($,(#131,#132,#133,#134));
#33=EDGE_LOOP($,(#135,#136,#137,#138));
#34=EDGE_LOOP($,(#139,#140,#141,#142));
#35=EDGE_LOOP($,(#143,#144,#145,#146));
#36=EDGE_LOOP($,(#147,#148,#149,#150));
#37=EDGE_LOOP($,(#151,#152,#153,#154,#155,#156,#157,#158));
#38=EDGE_LOOP($,(#159,#160,#161,#162,#163,#164,#165,#166));
#39=LINE($,#256,#59);
#40=LINE($,#258,#60);
#41=LINE($,#260,#61);
#42=LINE($,#261,#62);
#43=LINE($,#266,#63);
#44=LINE($,#270,#64);
#45=LINE($,#272,#65);
#46=LINE($,#273,#66);
#47=LINE($,#276,#67);
#48=LINE($,#278,#68);
#49=LINE($,#279,#69);
#50=LINE($,#282,#70);
#51=LINE($,#284,#71);
#52=LINE($,#285,#72);
#53=LINE($,#288,#73);
#54=LINE($,#290,#74);
#55=LINE($,#291,#75);
#56=LINE($,#294,#76);
#57=LINE($,#296,#77);
#58=LINE($,#297,#78);
#59=VECTOR($,#206,4.99999999999999);
#60=VECTOR($,#207,100.);
#61=VECTOR($,#208,4.99999999999999);
#62=VECTOR($,#209,100.);
#63=VECTOR($,#214,100.);
#64=VECTOR($,#219,2.85);
#65=VECTOR($,#220,100.);
#66=VECTOR($,#221,2.85);
#67=VECTOR($,#224,0.5);
#68=VECTOR($,#225,100.);
#69=VECTOR($,#226,0.5);
#70=VECTOR($,#229,7.80000000000001);
#71=VECTOR($,#230,100.);
#72=VECTOR($,#231,7.80000000000001);
#73=VECTOR($,#234,0.5);
#74=VECTOR($,#235,100.);
#75=VECTOR($,#236,0.5);
#76=VECTOR($,#239,2.84999999999999);
#77=VECTOR($,#240,100.);
#78=VECTOR($,#241,2.84999999999999);
#79=VERTEX_POINT($,#254);
#80=VERTEX_POINT($,#255);
#81=VERTEX_POINT($,#257);
#82=VERTEX_POINT($,#259);
#83=VERTEX_POINT($,#263);
#84=VERTEX_POINT($,#265);
#85=VERTEX_POINT($,#269);
#86=VERTEX_POINT($,#271);
#87=VERTEX_POINT($,#275);
#88=VERTEX_POINT($,#277);
#89=VERTEX_POINT($,#281);
#90=VERTEX_POINT($,#283);
#91=VERTEX_POINT($,#287);
#92=VERTEX_POINT($,#289);
#93=VERTEX_POINT($,#293);
#94=VERTEX_POINT($,#295);
#95=EDGE_CURVE($,#79,#80,#39,.T.);
#96=EDGE_CURVE($,#81,#80,#40,.T.);
#97=EDGE_CURVE($,#82,#81,#41,.T.);
#98=EDGE_CURVE($,#82,#79,#42,.T.);
#99=EDGE_CURVE($,#80,#83,#13,.T.);
#100=EDGE_CURVE($,#84,#83,#43,.T.);
#101=EDGE_CURVE($,#81,#84,#14,.T.);
#102=EDGE_CURVE($,#83,#85,#44,.T.);
#103=EDGE_CURVE($,#86,#85,#45,.T.);
#104=EDGE_CURVE($,#84,#86,#46,.T.);
#105=EDGE_CURVE($,#85,#87,#47,.T.);
#106=EDGE_CURVE($,#88,#87,#48,.T.);
#107=EDGE_CURVE($,#86,#88,#49,.T.);
#108=EDGE_CURVE($,#87,#89,#50,.T.);
#109=EDGE_CURVE($,#90,#89,#51,.T.);
#110=EDGE_CURVE($,#88,#90,#52,.T.);
#111=EDGE_CURVE($,#89,#91,#53,.T.);
#112=EDGE_CURVE($,#92,#91,#54,.T.);
#113=EDGE_CURVE($,#90,#92,#55,.T.);
#114=EDGE_CURVE($,#91,#93,#56,.T.);
#115=EDGE_CURVE($,#94,#93,#57,.T.);
#116=EDGE_CURVE($,#92,#94,#58,.T.);
#117=EDGE_CURVE($,#93,#79,#15,.T.);
#118=EDGE_CURVE($,#94,#82,#16,.T.);
#119=ORIENTED_EDGE($,*,*,#95,.T.);
#120=ORIENTED_EDGE($,*,*,#96,.F.);
#121=ORIENTED_EDGE($,*,*,#97,.F.);
#122=ORIENTED_EDGE($,*,*,#98,.T.);
#123=ORIENTED_EDGE($,*,*,#99,.T.);
#124=ORIENTED_EDGE($,*,*,#100,.F.);
#125=ORIENTED_EDGE($,*,*,#101,.F.);
#126=ORIENTED_EDGE($,*,*,#96,.T.);
#127=ORIENTED_EDGE($,*,*,#102,.T.);
#128=ORIENTED_EDGE($,*,*,#103,.F.);
#129=ORIENTED_EDGE($,*,*,#104,.F.);
#130=ORIENTED_EDGE($,*,*,#100,.T.);
#131=ORIENTED_EDGE($,*,*,#105,.T.);
#132=ORIENTED_EDGE($,*,*,#106,.F.);
#133=ORIENTED_EDGE($,*,*,#107,.F.);
#134=ORIENTED_EDGE($,*,*,#103,.T.);
#135=ORIENTED_EDGE($,*,*,#108,.T.);
#136=ORIENTED_EDGE($,*,*,#109,.F.);
#137=ORIENTED_EDGE($,*,*,#110,.F.);
#138=ORIENTED_EDGE($,*,*,#106,.T.);
#139=ORIENTED_EDGE($,*,*,#111,.T.);
#140=ORIENTED_EDGE($,*,*,#112,.F.);
#141=ORIENTED_EDGE($,*,*,#113,.F.);
#142=ORIENTED_EDGE($,*,*,#109,.T.);
#143=ORIENTED_EDGE($,*,*,#114,.T.);
#144=ORIENTED_EDGE($,*,*,#115,.F.);
#145=ORIENTED_EDGE($,*,*,#116,.F.);
#146=ORIENTED_EDGE($,*,*,#112,.T.);
#147=ORIENTED_EDGE($,*,*,#117,.T.);
#148=ORIENTED_EDGE($,*,*,#98,.F.);
#149=ORIENTED_EDGE($,*,*,#118,.F.);
#150=ORIENTED_EDGE($,*,*,#115,.T.);
#151=ORIENTED_EDGE($,*,*,#108,.F.);
#152=ORIENTED_EDGE($,*,*,#105,.F.);
#153=ORIENTED_EDGE($,*,*,#102,.F.);
#154=ORIENTED_EDGE($,*,*,#99,.F.);
#155=ORIENTED_EDGE($,*,*,#95,.F.);
#156=ORIENTED_EDGE($,*,*,#117,.F.);
#157=ORIENTED_EDGE($,*,*,#114,.F.);
#158=ORIENTED_EDGE($,*,*,#111,.F.);
#159=ORIENTED_EDGE($,*,*,#110,.T.);
#160=ORIENTED_EDGE($,*,*,#113,.T.);
#161=ORIENTED_EDGE($,*,*,#116,.T.);
#162=ORIENTED_EDGE($,*,*,#118,.T.);
#163=ORIENTED_EDGE($,*,*,#97,.T.);
#164=ORIENTED_EDGE($,*,*,#101,.T.);
#165=ORIENTED_EDGE($,*,*,#104,.T.);
#166=ORIENTED_EDGE($,*,*,#107,.T.);
#167=PLANE($,#188);
#168=PLANE($,#192);
#169=PLANE($,#193);
#170=PLANE($,#194);
#171=PLANE($,#195);
#172=PLANE($,#196);
#173=PLANE($,#200);
#174=PLANE($,#201);
#175=ADVANCED_FACE($,(#19),#167,.T.);
#176=ADVANCED_FACE($,(#20),#17,.T.);
#177=ADVANCED_FACE($,(#21),#168,.T.);
#178=ADVANCED_FACE($,(#22),#169,.T.);
#179=ADVANCED_FACE($,(#23),#170,.T.);
#180=ADVANCED_FACE($,(#24),#171,.T.);
#181=ADVANCED_FACE($,(#25),#172,.T.);
#182=ADVANCED_FACE($,(#26),#18,.T.);
#183=ADVANCED_FACE($,(#27),#173,.T.);
#184=ADVANCED_FACE($,(#28),#174,.F.);
#185=CLOSED_SHELL($,(#175,#176,#177,#178,#179,#180,#181,#182,#183,#184));
#186=MANIFOLD_SOLID_BREP('T\X2\011B\X0\leso1',#185);
#187=AXIS2_PLACEMENT_3D('placement',#252,#202,#203);
#188=AXIS2_PLACEMENT_3D($,#253,#204,#205);
#189=AXIS2_PLACEMENT_3D($,#262,#210,#211);
#190=AXIS2_PLACEMENT_3D($,#264,#212,#213);
#191=AXIS2_PLACEMENT_3D($,#267,#215,#216);
#192=AXIS2_PLACEMENT_3D($,#268,#217,#218);
#193=AXIS2_PLACEMENT_3D($,#274,#222,#223);
#194=AXIS2_PLACEMENT_3D($,#280,#227,#228);
#195=AXIS2_PLACEMENT_3D($,#286,#232,#233);
#196=AXIS2_PLACEMENT_3D($,#292,#237,#238);
#197=AXIS2_PLACEMENT_3D($,#298,#242,#243);
#198=AXIS2_PLACEMENT_3D($,#299,#244,#245);
#199=AXIS2_PLACEMENT_3D($,#300,#246,#247);
#200=AXIS2_PLACEMENT_3D($,#301,#248,#249);
#201=AXIS2_PLACEMENT_3D($,#302,#250,#251);
#202=DIRECTION('axis',(0.,0.,1.));
#203=DIRECTION('refdir',(1.,0.,0.));
#204=DIRECTION('center_axis',(8.88178419700127E-016,-1.,0.));
#205=DIRECTION('ref_axis',(0.,0.,-1.));
#206=DIRECTION($,(-1.,-8.88178419700127E-016,0.));
#207=DIRECTION($,(0.,0.,1.));
#208=DIRECTION($,(-1.,-8.88178419700127E-016,0.));
#209=DIRECTION($,(0.,0.,1.));
#210=DIRECTION('center_axis',(0.,0.,1.));
#211=DIRECTION('ref_axis',(-0.93386513550039,-0.357625374794405,0.));
#212=DIRECTION('center_axis',(0.,0.,-1.));
#213=DIRECTION('ref_axis',(-0.93386513550039,-0.357625374794405,0.));
#214=DIRECTION($,(0.,0.,1.));
#215=DIRECTION('center_axis',(0.,0.,-1.));
#216=DIRECTION('ref_axis',(-0.93386513550039,-0.357625374794405,0.));
#217=DIRECTION('center_axis',(0.,1.,0.));
#218=DIRECTION('ref_axis',(0.,0.,1.));
#219=DIRECTION($,(1.,0.,0.));
#220=DIRECTION($,(0.,0.,1.));
#221=DIRECTION($,(1.,0.,0.));
#222=DIRECTION('center_axis',(-1.,0.,0.));
#223=DIRECTION('ref_axis',(0.,0.,1.));
#224=DIRECTION($,(0.,1.,0.));
#225=DIRECTION($,(0.,0.,1.));
#226=DIRECTION($,(0.,1.,0.));
#227=DIRECTION('center_axis',(0.,1.,0.));
#228=DIRECTION('ref_axis',(0.,0.,1.));
#229=DIRECTION($,(1.,0.,0.));
#230=DIRECTION($,(0.,0.,1.));
#231=DIRECTION($,(1.,0.,0.));
#232=DIRECTION('center_axis',(1.,0.,0.));
#233=DIRECTION('ref_axis',(0.,0.,-1.));
#234=DIRECTION($,(0.,-1.,0.));
#235=DIRECTION($,(0.,0.,1.));
#236=DIRECTION($,(0.,-1.,0.));
#237=DIRECTION('center_axis',(4.36298171080765E-015,1.,0.));
#238=DIRECTION('ref_axis',(0.,0.,1.));
#239=DIRECTION($,(1.,-4.36298171080765E-015,0.));
#240=DIRECTION($,(0.,0.,1.));
#241=DIRECTION($,(1.,-4.36298171080765E-015,0.));
#242=DIRECTION('center_axis',(0.,0.,1.));
#243=DIRECTION('ref_axis',(0.721496874900568,-0.692417691504711,0.));
#244=DIRECTION('center_axis',(0.,0.,-1.));
#245=DIRECTION('ref_axis',(0.721496874900568,-0.692417691504711,0.));
#246=DIRECTION('center_axis',(0.,0.,-1.));
#247=DIRECTION('ref_axis',(0.721496874900568,-0.692417691504711,0.));
#248=DIRECTION('center_axis',(0.,0.,1.));
#249=DIRECTION('ref_axis',(1.,0.,0.));
#250=DIRECTION('center_axis',(0.,0.,1.));
#251=DIRECTION('ref_axis',(1.,0.,0.));
#252=CARTESIAN_POINT('',(0.,0.,0.));
#253=CARTESIAN_POINT('Origin',(2.5,-6.7,0.));
#254=CARTESIAN_POINT('',(2.5,-6.7,100.));
#255=CARTESIAN_POINT('',(-2.49999999999999,-6.70000000000001,100.));
#256=CARTESIAN_POINT($,(1.25,-6.7,100.));
#257=CARTESIAN_POINT('',(-2.49999999999999,-6.70000000000001,0.));
#258=CARTESIAN_POINT($,(-2.49999999999999,-6.70000000000001,0.));
#259=CARTESIAN_POINT('',(2.5,-6.7,0.));
#260=CARTESIAN_POINT($,(1.25,-6.7,0.));
#261=CARTESIAN_POINT($,(2.5,-6.7,0.));
#262=CARTESIAN_POINT('Origin',(11.9388888888889,7.15694444444447,0.));
#263=CARTESIAN_POINT('',(-6.75,0.,100.));
#264=CARTESIAN_POINT('Origin',(11.9388888888889,7.15694444444447,100.));
#265=CARTESIAN_POINT('',(-6.75,0.,0.));
#266=CARTESIAN_POINT($,(-6.75,0.,0.));
#267=CARTESIAN_POINT('Origin',(11.9388888888889,7.15694444444447,0.));
#268=CARTESIAN_POINT('Origin',(-6.75,0.,0.));
#269=CARTESIAN_POINT('',(-3.90000000000001,0.,100.));
#270=CARTESIAN_POINT($,(-3.375,0.,100.));
#271=CARTESIAN_POINT('',(-3.90000000000001,0.,0.));
#272=CARTESIAN_POINT($,(-3.90000000000001,0.,0.));
#273=CARTESIAN_POINT($,(-3.375,0.,0.));
#274=CARTESIAN_POINT('Origin',(-3.90000000000001,0.,0.));
#275=CARTESIAN_POINT('',(-3.90000000000001,0.5,100.));
#276=CARTESIAN_POINT($,(-3.90000000000001,-1.55,100.));
#277=CARTESIAN_POINT('',(-3.90000000000001,0.5,0.));
#278=CARTESIAN_POINT($,(-3.90000000000001,0.5,0.));
#279=CARTESIAN_POINT($,(-3.90000000000001,-1.55,0.));
#280=CARTESIAN_POINT('Origin',(-3.90000000000001,0.5,0.));
#281=CARTESIAN_POINT('',(3.90000000000001,0.5,100.));
#282=CARTESIAN_POINT($,(-1.95,0.5,100.));
#283=CARTESIAN_POINT('',(3.90000000000001,0.5,0.));
#284=CARTESIAN_POINT($,(3.90000000000001,0.5,0.));
#285=CARTESIAN_POINT($,(-1.95,0.5,0.));
#286=CARTESIAN_POINT('Origin',(3.90000000000001,0.5,0.));
#287=CARTESIAN_POINT('',(3.90000000000001,0.,100.));
#288=CARTESIAN_POINT($,(3.90000000000001,-1.3,100.));
#289=CARTESIAN_POINT('',(3.90000000000001,0.,0.));
#290=CARTESIAN_POINT($,(3.90000000000001,0.,0.));
#291=CARTESIAN_POINT($,(3.90000000000001,-1.3,0.));
#292=CARTESIAN_POINT('Origin',(3.90000000000001,0.,0.));
#293=CARTESIAN_POINT('',(6.74999999999999,-1.24344978758018E-014,100.));
#294=CARTESIAN_POINT($,(1.95000000000001,8.60422844084496E-015,100.));
#295=CARTESIAN_POINT('',(6.74999999999999,-1.24344978758018E-014,0.));
#296=CARTESIAN_POINT($,(6.74999999999999,-1.24344978758018E-014,0.));
#297=CARTESIAN_POINT($,(1.95000000000001,8.60422844084496E-015,0.));
#298=CARTESIAN_POINT('Origin',(-11.9388888888888,7.15694444444439,0.));
#299=CARTESIAN_POINT('Origin',(-11.9388888888888,7.15694444444439,100.));
#300=CARTESIAN_POINT('Origin',(-11.9388888888888,7.15694444444439,0.));
#301=CARTESIAN_POINT('Origin',(-2.77555756156289E-015,-3.1,100.));
#302=CARTESIAN_POINT('Origin',(-2.77555756156289E-015,-3.1,0.));
#303=UNCERTAINTY_MEASURE_WITH_UNIT(LENGTH_MEASURE(0.01),#305,
'DISTANCE_ACCURACY_VALUE',
'Maximum model space distance between geometric entities at asserted c
onnectivities');
#304=(
GEOMETRIC_REPRESENTATION_CONTEXT(3)
GLOBAL_UNCERTAINTY_ASSIGNED_CONTEXT((#303))
GLOBAL_UNIT_ASSIGNED_CONTEXT((#305,#308,#306))
REPRESENTATION_CONTEXT('','3D')
);
#305=(
LENGTH_UNIT()
NAMED_UNIT(*)
SI_UNIT(.MILLI.,.METRE.)
);
#306=(
NAMED_UNIT(*)
SI_UNIT($,.STERADIAN.)
SOLID_ANGLE_UNIT()
);
#307=DIMENSIONAL_EXPONENTS(0.,0.,0.,0.,0.,0.,0.);
#308=(
CONVERSION_BASED_UNIT('degree',#310)
NAMED_UNIT(#307)
PLANE_ANGLE_UNIT()
);
#309=(
NAMED_UNIT(*)
PLANE_ANGLE_UNIT()
SI_UNIT($,.RADIAN.)
);
#310=PLANE_ANGLE_MEASURE_WITH_UNIT(PLANE_ANGLE_MEASURE(0.01745329252),#309);
#311=SHAPE_DEFINITION_REPRESENTATION(#312,#313);
#312=PRODUCT_DEFINITION_SHAPE('',$,#315);
#313=SHAPE_REPRESENTATION('',(#187),#304);
#314=DESIGN_CONTEXT('3D Mechanical Parts',#318,'design');
#315=PRODUCT_DEFINITION('-210000-2','-210000-2',#316,#314);
#316=PRODUCT_DEFINITION_FORMATION('',$,#320);
#317=APPLICATION_PROTOCOL_DEFINITION('international standard',
'ap203_configuration_controlled_3d_design_of_mechanical_parts_and_asse
mblies_mim_lf',2004,#318);
#318=APPLICATION_CONTEXT(
'Configuration Controlled 3D Design of Mechanical Parts and Assemblies');
#319=MECHANICAL_CONTEXT('3D Mechanical Parts',#318,'mechanical');
#320=PRODUCT('-210000-2','-210000-2',$,(#319));
#321=PRESENTATION_STYLE_ASSIGNMENT((#322));
#322=SURFACE_STYLE_USAGE(.BOTH.,#323);
#323=SURFACE_SIDE_STYLE($,(#324));
#324=SURFACE_STYLE_FILL_AREA(#325);
#325=FILL_AREA_STYLE($,(#326));
#326=FILL_AREA_STYLE_COLOUR($,#327);
#327=COLOUR_RGB('',0.63921568627451,0.63921568627451,0.662745098039216);
ENDSEC;
END-ISO-10303-21;
