ISO-10303-21;
HEADER;
/* Generated by software containing ST-Developer
 * from STEP Tools, Inc. (www.steptools.com) 
 */

FILE_DESCRIPTION(
/* description */ ('Matice s pru\X2\017E\X0\inou 45'),
/* implementation_level */ '2;1');

FILE_NAME(
/* name */ 'D:\\Work\\Zakazky\\2013\\AlutecKK\\stp\\Matice\\210602.stp',

/* time_stamp */ '2014-01-07T07:44:37+01:00',
/* author */ ('AlutecKK'),
/* organization */ (''),
/* preprocessor_version */ 'ST-DEVELOPER v15.2',
/* originating_system */ 'Autodesk Inventor 2014',
/* authorisation */ '');

FILE_SCHEMA (('AUTOMOTIVE_DESIGN { 1 0 10303 214 3 1 1 }'));
ENDSEC;

DATA;
#10=SHAPE_REPRESENTATION_RELATIONSHIP('SRR','None',#433,#11);
#11=ADVANCED_BREP_SHAPE_REPRESENTATION($,(#251),#424);
#12=STYLED_ITEM($,(#441),#251);
#13=CONICAL_SURFACE($,#267,6.,45.);
#14=FACE_BOUND($,#49,.T.);
#15=FACE_BOUND($,#51,.T.);
#16=FACE_BOUND($,#53,.T.);
#17=FACE_BOUND($,#58,.T.);
#18=FACE_BOUND($,#59,.T.);
#19=CYLINDRICAL_SURFACE($,#258,3.5);
#20=CYLINDRICAL_SURFACE($,#261,3.5);
#21=CYLINDRICAL_SURFACE($,#265,2.4585);
#22=CIRCLE($,#255,3.5);
#23=CIRCLE($,#256,3.5);
#24=CIRCLE($,#259,3.5);
#25=CIRCLE($,#262,3.5);
#26=CIRCLE($,#264,2.4585);
#27=CIRCLE($,#266,2.4585);
#28=CIRCLE($,#268,5.5);
#29=FACE_OUTER_BOUND($,#42,.T.);
#30=FACE_OUTER_BOUND($,#43,.T.);
#31=FACE_OUTER_BOUND($,#44,.T.);
#32=FACE_OUTER_BOUND($,#45,.T.);
#33=FACE_OUTER_BOUND($,#46,.T.);
#34=FACE_OUTER_BOUND($,#47,.T.);
#35=FACE_OUTER_BOUND($,#48,.T.);
#36=FACE_OUTER_BOUND($,#50,.T.);
#37=FACE_OUTER_BOUND($,#52,.T.);
#38=FACE_OUTER_BOUND($,#54,.T.);
#39=FACE_OUTER_BOUND($,#55,.T.);
#40=FACE_OUTER_BOUND($,#56,.T.);
#41=FACE_OUTER_BOUND($,#57,.T.);
#42=EDGE_LOOP($,(#160,#161,#162,#163));
#43=EDGE_LOOP($,(#164,#165,#166,#167,#168,#169));
#44=EDGE_LOOP($,(#170,#171,#172,#173));
#45=EDGE_LOOP($,(#174,#175,#176,#177));
#46=EDGE_LOOP($,(#178,#179,#180,#181));
#47=EDGE_LOOP($,(#182,#183,#184,#185));
#48=EDGE_LOOP($,(#186,#187,#188,#189));
#49=EDGE_LOOP($,(#190));
#50=EDGE_LOOP($,(#191));
#51=EDGE_LOOP($,(#192));
#52=EDGE_LOOP($,(#193,#194,#195,#196,#197,#198,#199,#200));
#53=EDGE_LOOP($,(#201));
#54=EDGE_LOOP($,(#202,#203,#204,#205));
#55=EDGE_LOOP($,(#206,#207,#208,#209));
#56=EDGE_LOOP($,(#210,#211,#212,#213));
#57=EDGE_LOOP($,(#214,#215,#216,#217,#218,#219,#220,#221,#222,#223));
#58=EDGE_LOOP($,(#224));
#59=EDGE_LOOP($,(#225));
#60=LINE($,#344,#78);
#61=LINE($,#346,#79);
#62=LINE($,#347,#80);
#63=LINE($,#354,#81);
#64=LINE($,#358,#82);
#65=LINE($,#366,#83);
#66=LINE($,#367,#84);
#67=LINE($,#371,#85);
#68=LINE($,#374,#86);
#69=LINE($,#375,#87);
#70=LINE($,#381,#88);
#71=LINE($,#383,#89);
#72=LINE($,#385,#90);
#73=LINE($,#386,#91);
#74=LINE($,#415,#92);
#75=LINE($,#416,#93);
#76=LINE($,#418,#94);
#77=LINE($,#420,#95);
#78=VECTOR($,#278,9.80922811601562);
#79=VECTOR($,#279,0.05);
#80=VECTOR($,#280,9.84590300647707);
#81=VECTOR($,#283,9.80922811601562);
#82=VECTOR($,#286,5.);
#83=VECTOR($,#291,9.84590300647707);
#84=VECTOR($,#292,0.05);
#85=VECTOR($,#297,0.05);
#86=VECTOR($,#300,5.);
#87=VECTOR($,#301,0.05);
#88=VECTOR($,#308,13.);
#89=VECTOR($,#309,13.);
#90=VECTOR($,#310,13.);
#91=VECTOR($,#311,13.);
#92=VECTOR($,#324,2.30761184457488);
#93=VECTOR($,#325,2.30761184457488);
#94=VECTOR($,#328,2.30761184457488);
#95=VECTOR($,#331,2.30761184457488);
#96=(
BOUNDED_CURVE()
B_SPLINE_CURVE(2,(#340,#341,#342),.UNSPECIFIED.,.F.,.F.)
B_SPLINE_CURVE_WITH_KNOTS((3,3),(1.49399901321292,1.49782950665236),
 .UNSPECIFIED.)
CURVE()
GEOMETRIC_REPRESENTATION_ITEM()
RATIONAL_B_SPLINE_CURVE((1.02587305944789,1.02460924121263,1.02333877223921))
REPRESENTATION_ITEM($)
);
#97=(
BOUNDED_CURVE()
B_SPLINE_CURVE(2,(#350,#351,#352),.UNSPECIFIED.,.F.,.F.)
B_SPLINE_CURVE_WITH_KNOTS((3,3),(0.0432518620588495,1.37686352473218),
 .UNSPECIFIED.)
CURVE()
GEOMETRIC_REPRESENTATION_ITEM()
RATIONAL_B_SPLINE_CURVE((1.02511005383087,1.40006640437458,1.02511005383087))
REPRESENTATION_ITEM($)
);
#98=(
BOUNDED_CURVE()
B_SPLINE_CURVE(2,(#362,#363,#364),.UNSPECIFIED.,.F.,.F.)
B_SPLINE_CURVE_WITH_KNOTS((3,3),(0.0343759904640841,0.0382064839028182),
 .UNSPECIFIED.)
CURVE()
GEOMETRIC_REPRESENTATION_ITEM()
RATIONAL_B_SPLINE_CURVE((1.02333877223876,1.02460924121194,1.02587305944698))
REPRESENTATION_ITEM($)
);
#99=(
BOUNDED_CURVE()
B_SPLINE_CURVE(2,(#394,#395,#396),.UNSPECIFIED.,.F.,.F.)
B_SPLINE_CURVE_WITH_KNOTS((3,3),(0.0587433032615019,0.100094502788974),
 .UNSPECIFIED.)
CURVE()
GEOMETRIC_REPRESENTATION_ITEM()
RATIONAL_B_SPLINE_CURVE((1.03553390593274,1.04756149139687,1.05891455153464))
REPRESENTATION_ITEM($)
);
#100=(
BOUNDED_CURVE()
B_SPLINE_CURVE(2,(#398,#399,#400),.UNSPECIFIED.,.F.,.F.)
B_SPLINE_CURVE_WITH_KNOTS((3,3),(0.0587433032615016,1.53342502954415),
 .UNSPECIFIED.)
CURVE()
GEOMETRIC_REPRESENTATION_ITEM()
RATIONAL_B_SPLINE_CURVE((1.03553390593274,1.46446609406627,1.03553390593472))
REPRESENTATION_ITEM($)
);
#101=(
BOUNDED_CURVE()
B_SPLINE_CURVE(2,(#402,#403,#404),.UNSPECIFIED.,.F.,.F.)
B_SPLINE_CURVE_WITH_KNOTS((3,3),(0.0587433032615017,1.53342502954415),
 .UNSPECIFIED.)
CURVE()
GEOMETRIC_REPRESENTATION_ITEM()
RATIONAL_B_SPLINE_CURVE((1.03553390593274,1.46446609406627,1.03553390593472))
REPRESENTATION_ITEM($)
);
#102=(
BOUNDED_CURVE()
B_SPLINE_CURVE(2,(#406,#407,#408),.UNSPECIFIED.,.F.,.F.)
B_SPLINE_CURVE_WITH_KNOTS((3,3),(0.0587433032615018,1.53342502954415),
 .UNSPECIFIED.)
CURVE()
GEOMETRIC_REPRESENTATION_ITEM()
RATIONAL_B_SPLINE_CURVE((1.03553390593274,1.46446609406627,1.03553390593472))
REPRESENTATION_ITEM($)
);
#103=(
BOUNDED_CURVE()
B_SPLINE_CURVE(2,(#409,#410,#411),.UNSPECIFIED.,.F.,.F.)
B_SPLINE_CURVE_WITH_KNOTS((3,3),(1.4920738300162,1.53342502954415),
 .UNSPECIFIED.)
CURVE()
GEOMETRIC_REPRESENTATION_ITEM()
RATIONAL_B_SPLINE_CURVE((1.05891455153678,1.04756149139894,1.03553390593472))
REPRESENTATION_ITEM($)
);
#104=VERTEX_POINT($,#338);
#105=VERTEX_POINT($,#339);
#106=VERTEX_POINT($,#343);
#107=VERTEX_POINT($,#345);
#108=VERTEX_POINT($,#349);
#109=VERTEX_POINT($,#353);
#110=VERTEX_POINT($,#355);
#111=VERTEX_POINT($,#357);
#112=VERTEX_POINT($,#361);
#113=VERTEX_POINT($,#365);
#114=VERTEX_POINT($,#369);
#115=VERTEX_POINT($,#373);
#116=VERTEX_POINT($,#379);
#117=VERTEX_POINT($,#380);
#118=VERTEX_POINT($,#382);
#119=VERTEX_POINT($,#384);
#120=VERTEX_POINT($,#387);
#121=VERTEX_POINT($,#390);
#122=VERTEX_POINT($,#393);
#123=VERTEX_POINT($,#397);
#124=VERTEX_POINT($,#401);
#125=VERTEX_POINT($,#405);
#126=VERTEX_POINT($,#412);
#127=EDGE_CURVE($,#104,#105,#96,.T.);
#128=EDGE_CURVE($,#106,#104,#60,.T.);
#129=EDGE_CURVE($,#107,#106,#61,.T.);
#130=EDGE_CURVE($,#107,#105,#62,.T.);
#131=EDGE_CURVE($,#108,#104,#97,.T.);
#132=EDGE_CURVE($,#108,#109,#63,.T.);
#133=EDGE_CURVE($,#109,#110,#22,.T.);
#134=EDGE_CURVE($,#110,#111,#64,.T.);
#135=EDGE_CURVE($,#111,#106,#23,.T.);
#136=EDGE_CURVE($,#112,#108,#98,.T.);
#137=EDGE_CURVE($,#112,#113,#65,.T.);
#138=EDGE_CURVE($,#113,#109,#66,.T.);
#139=EDGE_CURVE($,#114,#107,#24,.T.);
#140=EDGE_CURVE($,#114,#111,#67,.T.);
#141=EDGE_CURVE($,#115,#114,#68,.T.);
#142=EDGE_CURVE($,#115,#110,#69,.T.);
#143=EDGE_CURVE($,#113,#115,#25,.T.);
#144=EDGE_CURVE($,#116,#117,#70,.T.);
#145=EDGE_CURVE($,#117,#118,#71,.T.);
#146=EDGE_CURVE($,#118,#119,#72,.T.);
#147=EDGE_CURVE($,#119,#116,#73,.T.);
#148=EDGE_CURVE($,#120,#120,#26,.T.);
#149=EDGE_CURVE($,#121,#121,#27,.T.);
#150=EDGE_CURVE($,#122,#105,#99,.T.);
#151=EDGE_CURVE($,#123,#122,#100,.T.);
#152=EDGE_CURVE($,#124,#123,#101,.T.);
#153=EDGE_CURVE($,#125,#124,#102,.T.);
#154=EDGE_CURVE($,#112,#125,#103,.T.);
#155=EDGE_CURVE($,#126,#126,#28,.T.);
#156=EDGE_CURVE($,#118,#124,#74,.T.);
#157=EDGE_CURVE($,#117,#125,#75,.T.);
#158=EDGE_CURVE($,#119,#123,#76,.T.);
#159=EDGE_CURVE($,#116,#122,#77,.T.);
#160=ORIENTED_EDGE($,*,*,#127,.F.);
#161=ORIENTED_EDGE($,*,*,#128,.F.);
#162=ORIENTED_EDGE($,*,*,#129,.F.);
#163=ORIENTED_EDGE($,*,*,#130,.T.);
#164=ORIENTED_EDGE($,*,*,#131,.F.);
#165=ORIENTED_EDGE($,*,*,#132,.T.);
#166=ORIENTED_EDGE($,*,*,#133,.T.);
#167=ORIENTED_EDGE($,*,*,#134,.T.);
#168=ORIENTED_EDGE($,*,*,#135,.T.);
#169=ORIENTED_EDGE($,*,*,#128,.T.);
#170=ORIENTED_EDGE($,*,*,#136,.F.);
#171=ORIENTED_EDGE($,*,*,#137,.T.);
#172=ORIENTED_EDGE($,*,*,#138,.T.);
#173=ORIENTED_EDGE($,*,*,#132,.F.);
#174=ORIENTED_EDGE($,*,*,#139,.T.);
#175=ORIENTED_EDGE($,*,*,#129,.T.);
#176=ORIENTED_EDGE($,*,*,#135,.F.);
#177=ORIENTED_EDGE($,*,*,#140,.F.);
#178=ORIENTED_EDGE($,*,*,#141,.T.);
#179=ORIENTED_EDGE($,*,*,#140,.T.);
#180=ORIENTED_EDGE($,*,*,#134,.F.);
#181=ORIENTED_EDGE($,*,*,#142,.F.);
#182=ORIENTED_EDGE($,*,*,#143,.T.);
#183=ORIENTED_EDGE($,*,*,#142,.T.);
#184=ORIENTED_EDGE($,*,*,#133,.F.);
#185=ORIENTED_EDGE($,*,*,#138,.F.);
#186=ORIENTED_EDGE($,*,*,#144,.T.);
#187=ORIENTED_EDGE($,*,*,#145,.T.);
#188=ORIENTED_EDGE($,*,*,#146,.T.);
#189=ORIENTED_EDGE($,*,*,#147,.T.);
#190=ORIENTED_EDGE($,*,*,#148,.T.);
#191=ORIENTED_EDGE($,*,*,#148,.F.);
#192=ORIENTED_EDGE($,*,*,#149,.F.);
#193=ORIENTED_EDGE($,*,*,#127,.T.);
#194=ORIENTED_EDGE($,*,*,#150,.F.);
#195=ORIENTED_EDGE($,*,*,#151,.F.);
#196=ORIENTED_EDGE($,*,*,#152,.F.);
#197=ORIENTED_EDGE($,*,*,#153,.F.);
#198=ORIENTED_EDGE($,*,*,#154,.F.);
#199=ORIENTED_EDGE($,*,*,#136,.T.);
#200=ORIENTED_EDGE($,*,*,#131,.T.);
#201=ORIENTED_EDGE($,*,*,#155,.F.);
#202=ORIENTED_EDGE($,*,*,#153,.T.);
#203=ORIENTED_EDGE($,*,*,#156,.F.);
#204=ORIENTED_EDGE($,*,*,#145,.F.);
#205=ORIENTED_EDGE($,*,*,#157,.T.);
#206=ORIENTED_EDGE($,*,*,#152,.T.);
#207=ORIENTED_EDGE($,*,*,#158,.F.);
#208=ORIENTED_EDGE($,*,*,#146,.F.);
#209=ORIENTED_EDGE($,*,*,#156,.T.);
#210=ORIENTED_EDGE($,*,*,#151,.T.);
#211=ORIENTED_EDGE($,*,*,#159,.F.);
#212=ORIENTED_EDGE($,*,*,#147,.F.);
#213=ORIENTED_EDGE($,*,*,#158,.T.);
#214=ORIENTED_EDGE($,*,*,#144,.F.);
#215=ORIENTED_EDGE($,*,*,#159,.T.);
#216=ORIENTED_EDGE($,*,*,#150,.T.);
#217=ORIENTED_EDGE($,*,*,#130,.F.);
#218=ORIENTED_EDGE($,*,*,#139,.F.);
#219=ORIENTED_EDGE($,*,*,#141,.F.);
#220=ORIENTED_EDGE($,*,*,#143,.F.);
#221=ORIENTED_EDGE($,*,*,#137,.F.);
#222=ORIENTED_EDGE($,*,*,#154,.T.);
#223=ORIENTED_EDGE($,*,*,#157,.F.);
#224=ORIENTED_EDGE($,*,*,#149,.T.);
#225=ORIENTED_EDGE($,*,*,#155,.T.);
#226=PLANE($,#253);
#227=PLANE($,#254);
#228=PLANE($,#257);
#229=PLANE($,#260);
#230=PLANE($,#263);
#231=PLANE($,#269);
#232=PLANE($,#270);
#233=PLANE($,#271);
#234=PLANE($,#272);
#235=PLANE($,#273);
#236=ADVANCED_FACE($,(#29),#226,.T.);
#237=ADVANCED_FACE($,(#30),#227,.T.);
#238=ADVANCED_FACE($,(#31),#228,.T.);
#239=ADVANCED_FACE($,(#32),#19,.T.);
#240=ADVANCED_FACE($,(#33),#229,.T.);
#241=ADVANCED_FACE($,(#34),#20,.T.);
#242=ADVANCED_FACE($,(#35,#14),#230,.F.);
#243=ADVANCED_FACE($,(#36,#15),#21,.F.);
#244=ADVANCED_FACE($,(#37,#16),#13,.T.);
#245=ADVANCED_FACE($,(#38),#231,.T.);
#246=ADVANCED_FACE($,(#39),#232,.T.);
#247=ADVANCED_FACE($,(#40),#233,.T.);
#248=ADVANCED_FACE($,(#41),#234,.T.);
#249=ADVANCED_FACE($,(#17,#18),#235,.T.);
#250=CLOSED_SHELL($,(#236,#237,#238,#239,#240,#241,#242,#243,#244,#245,
#246,#247,#248,#249));
#251=MANIFOLD_SOLID_BREP('Solid1',#250);
#252=AXIS2_PLACEMENT_3D('placement',#336,#274,#275);
#253=AXIS2_PLACEMENT_3D($,#337,#276,#277);
#254=AXIS2_PLACEMENT_3D($,#348,#281,#282);
#255=AXIS2_PLACEMENT_3D($,#356,#284,#285);
#256=AXIS2_PLACEMENT_3D($,#359,#287,#288);
#257=AXIS2_PLACEMENT_3D($,#360,#289,#290);
#258=AXIS2_PLACEMENT_3D($,#368,#293,#294);
#259=AXIS2_PLACEMENT_3D($,#370,#295,#296);
#260=AXIS2_PLACEMENT_3D($,#372,#298,#299);
#261=AXIS2_PLACEMENT_3D($,#376,#302,#303);
#262=AXIS2_PLACEMENT_3D($,#377,#304,#305);
#263=AXIS2_PLACEMENT_3D($,#378,#306,#307);
#264=AXIS2_PLACEMENT_3D($,#388,#312,#313);
#265=AXIS2_PLACEMENT_3D($,#389,#314,#315);
#266=AXIS2_PLACEMENT_3D($,#391,#316,#317);
#267=AXIS2_PLACEMENT_3D($,#392,#318,#319);
#268=AXIS2_PLACEMENT_3D($,#413,#320,#321);
#269=AXIS2_PLACEMENT_3D($,#414,#322,#323);
#270=AXIS2_PLACEMENT_3D($,#417,#326,#327);
#271=AXIS2_PLACEMENT_3D($,#419,#329,#330);
#272=AXIS2_PLACEMENT_3D($,#421,#332,#333);
#273=AXIS2_PLACEMENT_3D($,#422,#334,#335);
#274=DIRECTION('axis',(0.,0.,1.));
#275=DIRECTION('refdir',(1.,0.,0.));
#276=DIRECTION('center_axis',(0.,1.,0.));
#277=DIRECTION('ref_axis',(-1.,0.,0.));
#278=DIRECTION($,(-1.,0.,0.));
#279=DIRECTION($,(0.,0.,1.));
#280=DIRECTION($,(-1.,0.,0.));
#281=DIRECTION('center_axis',(0.,0.,1.));
#282=DIRECTION('ref_axis',(1.,0.,0.));
#283=DIRECTION($,(1.,-2.66453525910038E-016,0.));
#284=DIRECTION('center_axis',(0.,0.,1.));
#285=DIRECTION('ref_axis',(-1.,0.,0.));
#286=DIRECTION($,(0.,1.,0.));
#287=DIRECTION('center_axis',(0.,0.,1.));
#288=DIRECTION('ref_axis',(0.,-1.,0.));
#289=DIRECTION('center_axis',(-2.66453525910038E-016,-1.,0.));
#290=DIRECTION('ref_axis',(1.,-2.66453525910038E-016,0.));
#291=DIRECTION($,(1.,-2.66453525910038E-016,0.));
#292=DIRECTION($,(0.,0.,1.));
#293=DIRECTION('center_axis',(0.,0.,1.));
#294=DIRECTION('ref_axis',(0.,-1.,0.));
#295=DIRECTION('center_axis',(0.,0.,1.));
#296=DIRECTION('ref_axis',(0.,-1.,0.));
#297=DIRECTION($,(0.,0.,1.));
#298=DIRECTION('center_axis',(1.,0.,0.));
#299=DIRECTION('ref_axis',(0.,1.,0.));
#300=DIRECTION($,(0.,1.,0.));
#301=DIRECTION($,(0.,0.,1.));
#302=DIRECTION('center_axis',(0.,0.,1.));
#303=DIRECTION('ref_axis',(-1.,0.,0.));
#304=DIRECTION('center_axis',(0.,0.,1.));
#305=DIRECTION('ref_axis',(-1.,0.,0.));
#306=DIRECTION('center_axis',(1.,0.,0.));
#307=DIRECTION('ref_axis',(0.,0.,-1.));
#308=DIRECTION($,(0.,-1.,0.));
#309=DIRECTION($,(0.,0.,1.));
#310=DIRECTION($,(0.,1.,0.));
#311=DIRECTION($,(0.,0.,-1.));
#312=DIRECTION('center_axis',(1.,0.,0.));
#313=DIRECTION('ref_axis',(0.,0.,-1.));
#314=DIRECTION('center_axis',(1.,0.,0.));
#315=DIRECTION('ref_axis',(0.,0.,-1.));
#316=DIRECTION('center_axis',(-1.,0.,0.));
#317=DIRECTION('ref_axis',(0.,0.,-1.));
#318=DIRECTION('center_axis',(-1.,0.,0.));
#319=DIRECTION('ref_axis',(0.,1.,0.));
#320=DIRECTION('center_axis',(1.,0.,0.));
#321=DIRECTION('ref_axis',(0.,1.,0.));
#322=DIRECTION('center_axis',(0.,-1.,0.));
#323=DIRECTION('ref_axis',(0.,0.,-1.));
#324=DIRECTION($,(1.,0.,0.));
#325=DIRECTION($,(1.,0.,0.));
#326=DIRECTION('center_axis',(0.,0.,1.));
#327=DIRECTION('ref_axis',(1.,0.,0.));
#328=DIRECTION($,(1.,0.,0.));
#329=DIRECTION('center_axis',(0.,1.,0.));
#330=DIRECTION('ref_axis',(0.,0.,1.));
#331=DIRECTION($,(1.,0.,0.));
#332=DIRECTION('center_axis',(0.,0.,-1.));
#333=DIRECTION('ref_axis',(-1.,0.,0.));
#334=DIRECTION('center_axis',(1.,0.,0.));
#335=DIRECTION('ref_axis',(0.,0.,-1.));
#336=CARTESIAN_POINT('',(0.,0.,0.));
#337=CARTESIAN_POINT('Origin',(12.5,6.,-6.5));
#338=CARTESIAN_POINT('',(2.69077188398438,6.,-6.45));
#339=CARTESIAN_POINT('',(2.65409699352293,6.,-6.5));
#340=CARTESIAN_POINT('Ctrl Pts',(2.69077188398438,6.,-6.45));
#341=CARTESIAN_POINT('Ctrl Pts',(2.67250523970429,6.,-6.47494806765543));
#342=CARTESIAN_POINT('Ctrl Pts',(2.65409699352293,6.,-6.5));
#343=CARTESIAN_POINT('',(12.5,6.,-6.45));
#344=CARTESIAN_POINT($,(12.5,6.,-6.45));
#345=CARTESIAN_POINT('',(12.5,6.,-6.5));
#346=CARTESIAN_POINT($,(12.5,6.,-6.5));
#347=CARTESIAN_POINT($,(12.5,6.,-6.5));
#348=CARTESIAN_POINT('Origin',(7.11904773300614,-6.62863501914177E-016,
-6.45));
#349=CARTESIAN_POINT('',(2.69077188398438,-6.,-6.45));
#350=CARTESIAN_POINT('Ctrl Pts',(2.69077188398438,-6.,-6.45));
#351=CARTESIAN_POINT('Ctrl Pts',(6.77739553884534,1.47659662275146E-013,
-6.45));
#352=CARTESIAN_POINT('Ctrl Pts',(2.69077188398438,6.,-6.45));
#353=CARTESIAN_POINT('',(12.5,-6.,-6.45));
#354=CARTESIAN_POINT($,(0.,-6.,-6.45));
#355=CARTESIAN_POINT('',(16.,-2.5,-6.45));
#356=CARTESIAN_POINT('Origin',(12.5,-2.5,-6.45));
#357=CARTESIAN_POINT('',(16.,2.5,-6.45));
#358=CARTESIAN_POINT($,(16.,-2.5,-6.45));
#359=CARTESIAN_POINT('Origin',(12.5,2.5,-6.45));
#360=CARTESIAN_POINT('Origin',(0.,-6.,-6.5));
#361=CARTESIAN_POINT('',(2.65409699352293,-6.,-6.5));
#362=CARTESIAN_POINT('Ctrl Pts',(2.65409699352293,-6.,-6.5));
#363=CARTESIAN_POINT('Ctrl Pts',(2.6725052396999,-6.,-6.47494806766141));
#364=CARTESIAN_POINT('Ctrl Pts',(2.69077188398438,-6.,-6.45));
#365=CARTESIAN_POINT('',(12.5,-6.,-6.5));
#366=CARTESIAN_POINT($,(0.,-6.,-6.5));
#367=CARTESIAN_POINT($,(12.5,-6.,-6.5));
#368=CARTESIAN_POINT('Origin',(12.5,2.5,-6.5));
#369=CARTESIAN_POINT('',(16.,2.5,-6.5));
#370=CARTESIAN_POINT('Origin',(12.5,2.5,-6.5));
#371=CARTESIAN_POINT($,(16.,2.5,-6.5));
#372=CARTESIAN_POINT('Origin',(16.,-2.5,-6.5));
#373=CARTESIAN_POINT('',(16.,-2.5,-6.5));
#374=CARTESIAN_POINT($,(16.,-2.5,-6.5));
#375=CARTESIAN_POINT($,(16.,-2.5,-6.5));
#376=CARTESIAN_POINT('Origin',(12.5,-2.5,-6.5));
#377=CARTESIAN_POINT('Origin',(12.5,-2.5,-6.5));
#378=CARTESIAN_POINT('Origin',(0.,0.,4.54182146437564E-016));
#379=CARTESIAN_POINT('',(0.,6.5,-6.5));
#380=CARTESIAN_POINT('',(0.,-6.5,-6.5));
#381=CARTESIAN_POINT($,(0.,6.5,-6.5));
#382=CARTESIAN_POINT('',(0.,-6.5,6.5));
#383=CARTESIAN_POINT($,(0.,-6.5,-6.5));
#384=CARTESIAN_POINT('',(0.,6.5,6.5));
#385=CARTESIAN_POINT($,(0.,-6.5,6.5));
#386=CARTESIAN_POINT($,(0.,6.5,6.5));
#387=CARTESIAN_POINT('',(0.,-3.01069472087231E-016,2.4585));
#388=CARTESIAN_POINT('Origin',(0.,0.,0.));
#389=CARTESIAN_POINT('Origin',(-13.6382925992076,0.,0.));
#390=CARTESIAN_POINT('',(6.,0.,-2.4585));
#391=CARTESIAN_POINT('Origin',(6.,0.,0.));
#392=CARTESIAN_POINT('Origin',(5.5,0.,0.));
#393=CARTESIAN_POINT('',(2.30761184457488,6.5,-6.5));
#394=CARTESIAN_POINT('Ctrl Pts',(2.30761184457488,6.5,-6.5));
#395=CARTESIAN_POINT('Ctrl Pts',(2.4877841220255,6.24519792166235,-6.5));
#396=CARTESIAN_POINT('Ctrl Pts',(2.65409699351845,6.,-6.5));
#397=CARTESIAN_POINT('',(2.30761184457488,6.5,6.5));
#398=CARTESIAN_POINT('Ctrl Pts',(2.30761184457488,6.5,6.5));
#399=CARTESIAN_POINT('Ctrl Pts',(6.90380592224986,6.5,-3.18944870514315E-011));
#400=CARTESIAN_POINT('Ctrl Pts',(2.30761184457488,6.5,-6.5));
#401=CARTESIAN_POINT('',(2.30761184457488,-6.5,6.5));
#402=CARTESIAN_POINT('Ctrl Pts',(2.30761184457488,-6.5,6.5));
#403=CARTESIAN_POINT('Ctrl Pts',(6.90380592224986,3.18933768284069E-011,
6.5));
#404=CARTESIAN_POINT('Ctrl Pts',(2.30761184457488,6.5,6.5));
#405=CARTESIAN_POINT('',(2.30761184457488,-6.5,-6.5));
#406=CARTESIAN_POINT('Ctrl Pts',(2.30761184457488,-6.5,-6.5));
#407=CARTESIAN_POINT('Ctrl Pts',(6.90380592224986,-6.5,3.18944870514315E-011));
#408=CARTESIAN_POINT('Ctrl Pts',(2.30761184457488,-6.5,6.5));
#409=CARTESIAN_POINT('Ctrl Pts',(2.65409699352171,-6.,-6.5));
#410=CARTESIAN_POINT('Ctrl Pts',(2.48778412202727,-6.24519792166236,-6.5));
#411=CARTESIAN_POINT('Ctrl Pts',(2.30761184457488,-6.5,-6.5));
#412=CARTESIAN_POINT('',(6.,5.5,0.));
#413=CARTESIAN_POINT('Origin',(6.,0.,0.));
#414=CARTESIAN_POINT('Origin',(0.,-6.5,-6.5));
#415=CARTESIAN_POINT($,(0.,-6.5,6.5));
#416=CARTESIAN_POINT($,(0.,-6.5,-6.5));
#417=CARTESIAN_POINT('Origin',(0.,-6.5,6.5));
#418=CARTESIAN_POINT($,(0.,6.5,6.5));
#419=CARTESIAN_POINT('Origin',(0.,6.5,6.5));
#420=CARTESIAN_POINT($,(0.,6.5,-6.5));
#421=CARTESIAN_POINT('Origin',(0.,6.5,-6.5));
#422=CARTESIAN_POINT('Origin',(6.,0.,6.81273219656346E-016));
#423=UNCERTAINTY_MEASURE_WITH_UNIT(LENGTH_MEASURE(0.01),#425,
'DISTANCE_ACCURACY_VALUE',
'Maximum model space distance between geometric entities at asserted c
onnectivities');
#424=(
GEOMETRIC_REPRESENTATION_CONTEXT(3)
GLOBAL_UNCERTAINTY_ASSIGNED_CONTEXT((#423))
GLOBAL_UNIT_ASSIGNED_CONTEXT((#425,#428,#426))
REPRESENTATION_CONTEXT('','3D')
);
#425=(
LENGTH_UNIT()
NAMED_UNIT(*)
SI_UNIT(.MILLI.,.METRE.)
);
#426=(
NAMED_UNIT(*)
SI_UNIT($,.STERADIAN.)
SOLID_ANGLE_UNIT()
);
#427=DIMENSIONAL_EXPONENTS(0.,0.,0.,0.,0.,0.,0.);
#428=(
CONVERSION_BASED_UNIT('degree',#430)
NAMED_UNIT(#427)
PLANE_ANGLE_UNIT()
);
#429=(
NAMED_UNIT(*)
PLANE_ANGLE_UNIT()
SI_UNIT($,.RADIAN.)
);
#430=PLANE_ANGLE_MEASURE_WITH_UNIT(PLANE_ANGLE_MEASURE(0.01745329252),#429);
#431=SHAPE_DEFINITION_REPRESENTATION(#432,#433);
#432=PRODUCT_DEFINITION_SHAPE('',$,#435);
#433=SHAPE_REPRESENTATION('',(#252),#424);
#434=PRODUCT_DEFINITION_CONTEXT('3D Mechanical Parts',#438,'design');
#435=PRODUCT_DEFINITION('210602','210602',#436,#434);
#436=PRODUCT_DEFINITION_FORMATION('',$,#440);
#437=APPLICATION_PROTOCOL_DEFINITION('international standard',
'automotive_design',2009,#438);
#438=APPLICATION_CONTEXT(
'Core Data for Automotive Mechanical Design Process');
#439=PRODUCT_CONTEXT('3D Mechanical Parts',#438,'mechanical');
#440=PRODUCT('210602','210602',$,(#439));
#441=PRESENTATION_STYLE_ASSIGNMENT((#442));
#442=SURFACE_STYLE_USAGE(.BOTH.,#443);
#443=SURFACE_SIDE_STYLE($,(#444));
#444=SURFACE_STYLE_FILL_AREA(#445);
#445=FILL_AREA_STYLE($,(#446));
#446=FILL_AREA_STYLE_COLOUR($,#447);
#447=COLOUR_RGB('',0.63921568627451,0.63921568627451,0.686274509803922);
ENDSEC;
END-ISO-10303-21;
