ISO-10303-21;
HEADER;
/* Generated by software containing ST-Developer
 * from STEP Tools, Inc. (www.steptools.com) 
 */

FILE_DESCRIPTION(
/* description */ (''),
/* implementation_level */ '2;1');

FILE_NAME(
/* name */ 'C:\\STEP\\210810.stp',
/* time_stamp */ '2014-03-20T16:51:38+01:00',
/* author */ ('jank'),
/* organization */ ('Alutec K&K'),
/* preprocessor_version */ 'ST-DEVELOPER v15.2',
/* originating_system */ 'Autodesk Inventor 2014',
/* authorisation */ '');

FILE_SCHEMA (('AUTOMOTIVE_DESIGN { 1 0 10303 214 3 1 1 }'));
ENDSEC;

DATA;
#10=SHAPE_REPRESENTATION_RELATIONSHIP('SRR','None',#337,#11);
#11=ADVANCED_BREP_SHAPE_REPRESENTATION($,(#189),#328);
#12=STYLED_ITEM($,(#346),#189);
#13=CYLINDRICAL_SURFACE($,#195,3.3235);
#14=CYLINDRICAL_SURFACE($,#205,10.5);
#15=LINE($,#280,#21);
#16=LINE($,#285,#22);
#17=LINE($,#288,#23);
#18=LINE($,#299,#24);
#19=LINE($,#308,#25);
#20=LINE($,#314,#26);
#21=VECTOR($,#216,4.4976404784035);
#22=VECTOR($,#217,4.49764047840349);
#23=VECTOR($,#220,4.49764047840349);
#24=VECTOR($,#229,4.49764047840349);
#25=VECTOR($,#232,4.49764047840349);
#26=VECTOR($,#235,4.49764047840349);
#27=PLANE($,#193);
#28=PLANE($,#194);
#29=PLANE($,#198);
#30=PLANE($,#199);
#31=PLANE($,#200);
#32=PLANE($,#201);
#33=PLANE($,#202);
#34=PLANE($,#207);
#35=FACE_BOUND($,#59,.T.);
#36=FACE_BOUND($,#63,.T.);
#37=FACE_BOUND($,#69,.T.);
#38=FACE_BOUND($,#71,.T.);
#39=FACE_BOUND($,#73,.T.);
#40=FACE_BOUND($,#75,.T.);
#41=CIRCLE($,#192,5.77350269189626);
#42=CIRCLE($,#196,3.3235);
#43=CIRCLE($,#197,3.3235);
#44=CIRCLE($,#204,10.5);
#45=CIRCLE($,#206,10.5);
#46=FACE_OUTER_BOUND($,#58,.T.);
#47=FACE_OUTER_BOUND($,#60,.T.);
#48=FACE_OUTER_BOUND($,#61,.T.);
#49=FACE_OUTER_BOUND($,#62,.T.);
#50=FACE_OUTER_BOUND($,#64,.T.);
#51=FACE_OUTER_BOUND($,#65,.T.);
#52=FACE_OUTER_BOUND($,#66,.T.);
#53=FACE_OUTER_BOUND($,#67,.T.);
#54=FACE_OUTER_BOUND($,#68,.T.);
#55=FACE_OUTER_BOUND($,#70,.T.);
#56=FACE_OUTER_BOUND($,#72,.T.);
#57=FACE_OUTER_BOUND($,#74,.T.);
#58=EDGE_LOOP($,(#128,#129,#130,#131,#132,#133));
#59=EDGE_LOOP($,(#134));
#60=EDGE_LOOP($,(#135,#136,#137,#138));
#61=EDGE_LOOP($,(#139,#140,#141,#142));
#62=EDGE_LOOP($,(#143));
#63=EDGE_LOOP($,(#144));
#64=EDGE_LOOP($,(#145,#146,#147,#148));
#65=EDGE_LOOP($,(#149,#150,#151,#152));
#66=EDGE_LOOP($,(#153,#154,#155,#156));
#67=EDGE_LOOP($,(#157,#158,#159,#160));
#68=EDGE_LOOP($,(#161));
#69=EDGE_LOOP($,(#162));
#70=EDGE_LOOP($,(#163,#164,#165,#166,#167,#168));
#71=EDGE_LOOP($,(#169));
#72=EDGE_LOOP($,(#170));
#73=EDGE_LOOP($,(#171));
#74=EDGE_LOOP($,(#172));
#75=EDGE_LOOP($,(#173));
#76=(
BOUNDED_CURVE()
B_SPLINE_CURVE(2,(#254,#255,#256),.UNSPECIFIED.,.F.,.F.)
B_SPLINE_CURVE_WITH_KNOTS((3,3),(0.,0.759483489750648),.UNSPECIFIED.)
CURVE()
GEOMETRIC_REPRESENTATION_ITEM()
RATIONAL_B_SPLINE_CURVE((1.,1.15470053837925,1.))
REPRESENTATION_ITEM($)
);
#77=(
BOUNDED_CURVE()
B_SPLINE_CURVE(2,(#258,#259,#260),.UNSPECIFIED.,.F.,.F.)
B_SPLINE_CURVE_WITH_KNOTS((3,3),(0.,0.759483489750649),.UNSPECIFIED.)
CURVE()
GEOMETRIC_REPRESENTATION_ITEM()
RATIONAL_B_SPLINE_CURVE((1.,1.15470053837925,1.))
REPRESENTATION_ITEM($)
);
#78=(
BOUNDED_CURVE()
B_SPLINE_CURVE(2,(#262,#263,#264),.UNSPECIFIED.,.F.,.F.)
B_SPLINE_CURVE_WITH_KNOTS((3,3),(0.,0.759483489750648),.UNSPECIFIED.)
CURVE()
GEOMETRIC_REPRESENTATION_ITEM()
RATIONAL_B_SPLINE_CURVE((1.,1.15470053837925,1.))
REPRESENTATION_ITEM($)
);
#79=(
BOUNDED_CURVE()
B_SPLINE_CURVE(2,(#266,#267,#268),.UNSPECIFIED.,.F.,.F.)
B_SPLINE_CURVE_WITH_KNOTS((3,3),(0.,0.759483489750648),.UNSPECIFIED.)
CURVE()
GEOMETRIC_REPRESENTATION_ITEM()
RATIONAL_B_SPLINE_CURVE((1.,1.15470053837925,1.))
REPRESENTATION_ITEM($)
);
#80=(
BOUNDED_CURVE()
B_SPLINE_CURVE(2,(#270,#271,#272),.UNSPECIFIED.,.F.,.F.)
B_SPLINE_CURVE_WITH_KNOTS((3,3),(0.,0.759483489750647),.UNSPECIFIED.)
CURVE()
GEOMETRIC_REPRESENTATION_ITEM()
RATIONAL_B_SPLINE_CURVE((1.,1.15470053837926,1.))
REPRESENTATION_ITEM($)
);
#81=(
BOUNDED_CURVE()
B_SPLINE_CURVE(2,(#273,#274,#275),.UNSPECIFIED.,.F.,.F.)
B_SPLINE_CURVE_WITH_KNOTS((3,3),(0.,0.759483489750647),.UNSPECIFIED.)
CURVE()
GEOMETRIC_REPRESENTATION_ITEM()
RATIONAL_B_SPLINE_CURVE((1.,1.15470053837925,1.))
REPRESENTATION_ITEM($)
);
#82=(
BOUNDED_CURVE()
B_SPLINE_CURVE(2,(#282,#283,#284),.UNSPECIFIED.,.F.,.F.)
B_SPLINE_CURVE_WITH_KNOTS((3,3),(0.,0.752487335814037),.UNSPECIFIED.)
CURVE()
GEOMETRIC_REPRESENTATION_ITEM()
RATIONAL_B_SPLINE_CURVE((1.,1.15470053837926,1.))
REPRESENTATION_ITEM($)
);
#83=(
BOUNDED_CURVE()
B_SPLINE_CURVE(2,(#289,#290,#291),.UNSPECIFIED.,.F.,.F.)
B_SPLINE_CURVE_WITH_KNOTS((3,3),(0.,0.752487335814038),.UNSPECIFIED.)
CURVE()
GEOMETRIC_REPRESENTATION_ITEM()
RATIONAL_B_SPLINE_CURVE((1.,1.15470053837926,1.))
REPRESENTATION_ITEM($)
);
#84=(
BOUNDED_CURVE()
B_SPLINE_CURVE(2,(#300,#301,#302),.UNSPECIFIED.,.F.,.F.)
B_SPLINE_CURVE_WITH_KNOTS((3,3),(0.,0.752487335814032),.UNSPECIFIED.)
CURVE()
GEOMETRIC_REPRESENTATION_ITEM()
RATIONAL_B_SPLINE_CURVE((1.,1.15470053837926,1.))
REPRESENTATION_ITEM($)
);
#85=(
BOUNDED_CURVE()
B_SPLINE_CURVE(2,(#305,#306,#307),.UNSPECIFIED.,.F.,.F.)
B_SPLINE_CURVE_WITH_KNOTS((3,3),(0.,0.752487335814033),.UNSPECIFIED.)
CURVE()
GEOMETRIC_REPRESENTATION_ITEM()
RATIONAL_B_SPLINE_CURVE((1.,1.15470053837926,1.))
REPRESENTATION_ITEM($)
);
#86=(
BOUNDED_CURVE()
B_SPLINE_CURVE(2,(#311,#312,#313),.UNSPECIFIED.,.F.,.F.)
B_SPLINE_CURVE_WITH_KNOTS((3,3),(0.,0.752487335814032),.UNSPECIFIED.)
CURVE()
GEOMETRIC_REPRESENTATION_ITEM()
RATIONAL_B_SPLINE_CURVE((1.,1.15470053837925,1.))
REPRESENTATION_ITEM($)
);
#87=(
BOUNDED_CURVE()
B_SPLINE_CURVE(2,(#316,#317,#318),.UNSPECIFIED.,.F.,.F.)
B_SPLINE_CURVE_WITH_KNOTS((3,3),(0.,0.75248733581403),.UNSPECIFIED.)
CURVE()
GEOMETRIC_REPRESENTATION_ITEM()
RATIONAL_B_SPLINE_CURVE((1.,1.15470053837925,1.))
REPRESENTATION_ITEM($)
);
#88=VERTEX_POINT($,#252);
#89=VERTEX_POINT($,#253);
#90=VERTEX_POINT($,#257);
#91=VERTEX_POINT($,#261);
#92=VERTEX_POINT($,#265);
#93=VERTEX_POINT($,#269);
#94=VERTEX_POINT($,#276);
#95=VERTEX_POINT($,#279);
#96=VERTEX_POINT($,#281);
#97=VERTEX_POINT($,#287);
#98=VERTEX_POINT($,#293);
#99=VERTEX_POINT($,#295);
#100=VERTEX_POINT($,#298);
#101=VERTEX_POINT($,#304);
#102=VERTEX_POINT($,#310);
#103=VERTEX_POINT($,#321);
#104=VERTEX_POINT($,#324);
#105=EDGE_CURVE($,#88,#89,#76,.T.);
#106=EDGE_CURVE($,#90,#88,#77,.T.);
#107=EDGE_CURVE($,#91,#90,#78,.T.);
#108=EDGE_CURVE($,#92,#91,#79,.T.);
#109=EDGE_CURVE($,#93,#92,#80,.T.);
#110=EDGE_CURVE($,#89,#93,#81,.T.);
#111=EDGE_CURVE($,#94,#94,#41,.T.);
#112=EDGE_CURVE($,#90,#95,#15,.T.);
#113=EDGE_CURVE($,#96,#95,#82,.T.);
#114=EDGE_CURVE($,#91,#96,#16,.T.);
#115=EDGE_CURVE($,#88,#97,#17,.T.);
#116=EDGE_CURVE($,#95,#97,#83,.T.);
#117=EDGE_CURVE($,#98,#98,#42,.T.);
#118=EDGE_CURVE($,#99,#99,#43,.T.);
#119=EDGE_CURVE($,#89,#100,#18,.T.);
#120=EDGE_CURVE($,#97,#100,#84,.T.);
#121=EDGE_CURVE($,#101,#96,#85,.T.);
#122=EDGE_CURVE($,#92,#101,#19,.T.);
#123=EDGE_CURVE($,#102,#101,#86,.T.);
#124=EDGE_CURVE($,#93,#102,#20,.T.);
#125=EDGE_CURVE($,#100,#102,#87,.T.);
#126=EDGE_CURVE($,#103,#103,#44,.T.);
#127=EDGE_CURVE($,#104,#104,#45,.T.);
#128=ORIENTED_EDGE($,*,*,#105,.F.);
#129=ORIENTED_EDGE($,*,*,#106,.F.);
#130=ORIENTED_EDGE($,*,*,#107,.F.);
#131=ORIENTED_EDGE($,*,*,#108,.F.);
#132=ORIENTED_EDGE($,*,*,#109,.F.);
#133=ORIENTED_EDGE($,*,*,#110,.F.);
#134=ORIENTED_EDGE($,*,*,#111,.F.);
#135=ORIENTED_EDGE($,*,*,#107,.T.);
#136=ORIENTED_EDGE($,*,*,#112,.T.);
#137=ORIENTED_EDGE($,*,*,#113,.F.);
#138=ORIENTED_EDGE($,*,*,#114,.F.);
#139=ORIENTED_EDGE($,*,*,#106,.T.);
#140=ORIENTED_EDGE($,*,*,#115,.T.);
#141=ORIENTED_EDGE($,*,*,#116,.F.);
#142=ORIENTED_EDGE($,*,*,#112,.F.);
#143=ORIENTED_EDGE($,*,*,#117,.F.);
#144=ORIENTED_EDGE($,*,*,#118,.F.);
#145=ORIENTED_EDGE($,*,*,#105,.T.);
#146=ORIENTED_EDGE($,*,*,#119,.T.);
#147=ORIENTED_EDGE($,*,*,#120,.F.);
#148=ORIENTED_EDGE($,*,*,#115,.F.);
#149=ORIENTED_EDGE($,*,*,#108,.T.);
#150=ORIENTED_EDGE($,*,*,#114,.T.);
#151=ORIENTED_EDGE($,*,*,#121,.F.);
#152=ORIENTED_EDGE($,*,*,#122,.F.);
#153=ORIENTED_EDGE($,*,*,#109,.T.);
#154=ORIENTED_EDGE($,*,*,#122,.T.);
#155=ORIENTED_EDGE($,*,*,#123,.F.);
#156=ORIENTED_EDGE($,*,*,#124,.F.);
#157=ORIENTED_EDGE($,*,*,#110,.T.);
#158=ORIENTED_EDGE($,*,*,#124,.T.);
#159=ORIENTED_EDGE($,*,*,#125,.F.);
#160=ORIENTED_EDGE($,*,*,#119,.F.);
#161=ORIENTED_EDGE($,*,*,#111,.T.);
#162=ORIENTED_EDGE($,*,*,#118,.T.);
#163=ORIENTED_EDGE($,*,*,#120,.T.);
#164=ORIENTED_EDGE($,*,*,#125,.T.);
#165=ORIENTED_EDGE($,*,*,#123,.T.);
#166=ORIENTED_EDGE($,*,*,#121,.T.);
#167=ORIENTED_EDGE($,*,*,#113,.T.);
#168=ORIENTED_EDGE($,*,*,#116,.T.);
#169=ORIENTED_EDGE($,*,*,#126,.F.);
#170=ORIENTED_EDGE($,*,*,#127,.F.);
#171=ORIENTED_EDGE($,*,*,#126,.T.);
#172=ORIENTED_EDGE($,*,*,#127,.T.);
#173=ORIENTED_EDGE($,*,*,#117,.T.);
#174=CONICAL_SURFACE($,#191,6.6395280956807,60.0000000000001);
#175=CONICAL_SURFACE($,#203,5.25,75.);
#176=ADVANCED_FACE($,(#46,#35),#174,.T.);
#177=ADVANCED_FACE($,(#47),#27,.T.);
#178=ADVANCED_FACE($,(#48),#28,.T.);
#179=ADVANCED_FACE($,(#49,#36),#13,.F.);
#180=ADVANCED_FACE($,(#50),#29,.T.);
#181=ADVANCED_FACE($,(#51),#30,.T.);
#182=ADVANCED_FACE($,(#52),#31,.T.);
#183=ADVANCED_FACE($,(#53),#32,.T.);
#184=ADVANCED_FACE($,(#54,#37),#33,.T.);
#185=ADVANCED_FACE($,(#55,#38),#175,.T.);
#186=ADVANCED_FACE($,(#56,#39),#14,.T.);
#187=ADVANCED_FACE($,(#57,#40),#34,.T.);
#188=CLOSED_SHELL($,(#176,#177,#178,#179,#180,#181,#182,#183,#184,#185,
#186,#187));
#189=MANIFOLD_SOLID_BREP('T\X2\011B\X0\leso1',#188);
#190=AXIS2_PLACEMENT_3D('placement',#250,#208,#209);
#191=AXIS2_PLACEMENT_3D($,#251,#210,#211);
#192=AXIS2_PLACEMENT_3D($,#277,#212,#213);
#193=AXIS2_PLACEMENT_3D($,#278,#214,#215);
#194=AXIS2_PLACEMENT_3D($,#286,#218,#219);
#195=AXIS2_PLACEMENT_3D($,#292,#221,#222);
#196=AXIS2_PLACEMENT_3D($,#294,#223,#224);
#197=AXIS2_PLACEMENT_3D($,#296,#225,#226);
#198=AXIS2_PLACEMENT_3D($,#297,#227,#228);
#199=AXIS2_PLACEMENT_3D($,#303,#230,#231);
#200=AXIS2_PLACEMENT_3D($,#309,#233,#234);
#201=AXIS2_PLACEMENT_3D($,#315,#236,#237);
#202=AXIS2_PLACEMENT_3D($,#319,#238,#239);
#203=AXIS2_PLACEMENT_3D($,#320,#240,#241);
#204=AXIS2_PLACEMENT_3D($,#322,#242,#243);
#205=AXIS2_PLACEMENT_3D($,#323,#244,#245);
#206=AXIS2_PLACEMENT_3D($,#325,#246,#247);
#207=AXIS2_PLACEMENT_3D($,#326,#248,#249);
#208=DIRECTION('axis',(0.,0.,1.));
#209=DIRECTION('refdir',(1.,0.,0.));
#210=DIRECTION('center_axis',(6.66133814775094E-016,6.66133814775094E-016,
-1.));
#211=DIRECTION('ref_axis',(-1.,0.,-6.66133814775094E-016));
#212=DIRECTION('center_axis',(-6.66133814775094E-016,-6.66133814775094E-016,
1.));
#213=DIRECTION('ref_axis',(-1.,0.,-6.66133814775094E-016));
#214=DIRECTION('center_axis',(4.43734259186819E-031,-1.,-6.66133814775094E-016));
#215=DIRECTION('ref_axis',(1.,0.,8.88178419700125E-016));
#216=DIRECTION($,(6.66133814775094E-016,6.66133814775094E-016,-1.));
#217=DIRECTION($,(6.66133814775094E-016,6.66133814775094E-016,-1.));
#218=DIRECTION('center_axis',(-0.866025403784438,-0.5,-8.14817013302616E-016));
#219=DIRECTION('ref_axis',(0.5,-0.866025403784439,-8.88178419700125E-016));
#220=DIRECTION($,(6.66133814775094E-016,6.66133814775094E-016,-1.));
#221=DIRECTION('center_axis',(5.67870376391501E-016,4.57966997657877E-016,
-1.));
#222=DIRECTION('ref_axis',(1.771580177543E-016,1.,4.57966997657877E-016));
#223=DIRECTION('center_axis',(-6.66133814775094E-016,-6.66133814775094E-016,
1.));
#224=DIRECTION('ref_axis',(4.43734259186819E-031,-1.,-6.66133814775094E-016));
#225=DIRECTION('center_axis',(6.66133814775094E-016,6.66133814775094E-016,
-1.));
#226=DIRECTION('ref_axis',(4.43734259186819E-031,-1.,-6.66133814775094E-016));
#227=DIRECTION('center_axis',(-0.866025403784439,0.5,-3.38960598527522E-016));
#228=DIRECTION('ref_axis',(-0.499999999999999,-0.866025403784439,0.));
#229=DIRECTION($,(6.66133814775094E-016,6.66133814775094E-016,-1.));
#230=DIRECTION('center_axis',(0.866025403784439,-0.5,3.38960598527522E-016));
#231=DIRECTION('ref_axis',(0.5,0.866025403784439,1.77635683940025E-015));
#232=DIRECTION($,(6.66133814775094E-016,6.66133814775094E-016,-1.));
#233=DIRECTION('center_axis',(0.866025403784438,0.5,8.14817013302616E-016));
#234=DIRECTION('ref_axis',(-0.5,0.866025403784439,0.));
#235=DIRECTION($,(6.66133814775094E-016,6.66133814775094E-016,-1.));
#236=DIRECTION('center_axis',(-4.43734259186819E-031,1.,6.66133814775094E-016));
#237=DIRECTION('ref_axis',(-1.,0.,0.));
#238=DIRECTION('center_axis',(-6.66133814775094E-016,-6.66133814775094E-016,
1.));
#239=DIRECTION('ref_axis',(-1.,0.,-8.88178419700125E-016));
#240=DIRECTION('center_axis',(6.66133814775094E-016,4.81648714775094E-016,
-1.));
#241=DIRECTION('ref_axis',(3.20842495754655E-031,-1.,-4.81648714775094E-016));
#242=DIRECTION('center_axis',(6.66133814775094E-016,6.66133814775094E-016,
-1.));
#243=DIRECTION('ref_axis',(4.43734259186819E-031,-1.,-6.66133814775094E-016));
#244=DIRECTION('center_axis',(6.66133814775094E-016,4.81648714775094E-016,
-1.));
#245=DIRECTION('ref_axis',(3.20842495754655E-031,-1.,-4.81648714775094E-016));
#246=DIRECTION('center_axis',(6.66133814775094E-016,6.66133814775094E-016,
-1.));
#247=DIRECTION('ref_axis',(4.43734259186819E-031,-1.,-6.66133814775094E-016));
#248=DIRECTION('center_axis',(6.66133814775094E-016,6.66133814775094E-016,
-1.));
#249=DIRECTION('ref_axis',(1.,0.,6.66133814775094E-016));
#250=CARTESIAN_POINT('',(0.,0.,0.));
#251=CARTESIAN_POINT('Origin',(-4.9960036108132E-015,-4.9960036108132E-015,
7.5));
#252=CARTESIAN_POINT('',(-7.50555349946515,-4.66293670342566E-015,6.99999999999999));
#253=CARTESIAN_POINT('',(-3.75277674973257,6.5,7.00000000000001));
#254=CARTESIAN_POINT('Ctrl Pts',(-7.50555349946515,-5.91797170342566E-015,
6.99999999999999));
#255=CARTESIAN_POINT('Ctrl Pts',(-5.62916512459886,3.25,8.08333333333333));
#256=CARTESIAN_POINT('Ctrl Pts',(-3.75277674973257,6.5,7.00000000000001));
#257=CARTESIAN_POINT('',(-3.75277674973256,-6.50000000000001,7.));
#258=CARTESIAN_POINT('Ctrl Pts',(-3.75277674973256,-6.50000000000001,7.));
#259=CARTESIAN_POINT('Ctrl Pts',(-5.62916512459886,-3.25000000000001,8.08333333333333));
#260=CARTESIAN_POINT('Ctrl Pts',(-7.50555349946515,-2.70314703425658E-016,
6.99999999999999));
#261=CARTESIAN_POINT('',(3.75277674973258,-6.5,7.));
#262=CARTESIAN_POINT('Ctrl Pts',(3.75277674973258,-6.5,7.));
#263=CARTESIAN_POINT('Ctrl Pts',(-9.43689570931382E-016,-6.5,8.08333333333333));
#264=CARTESIAN_POINT('Ctrl Pts',(-3.75277674973257,-6.50000000000001,7.));
#265=CARTESIAN_POINT('',(7.50555349946514,1.44329029657434E-015,7.00000000000001));
#266=CARTESIAN_POINT('Ctrl Pts',(7.50555349946514,9.84719296574342E-016,
7.00000000000001));
#267=CARTESIAN_POINT('Ctrl Pts',(5.62916512459885,-3.25,8.08333333333333));
#268=CARTESIAN_POINT('Ctrl Pts',(3.75277674973257,-6.50000000000001,7.));
#269=CARTESIAN_POINT('',(3.75277674973257,6.5,7.00000000000001));
#270=CARTESIAN_POINT('Ctrl Pts',(3.75277674973257,6.5,7.00000000000001));
#271=CARTESIAN_POINT('Ctrl Pts',(5.62916512459885,3.25,8.08333333333334));
#272=CARTESIAN_POINT('Ctrl Pts',(7.50555349946514,1.61223729657434E-015,
7.00000000000001));
#273=CARTESIAN_POINT('Ctrl Pts',(-3.75277674973257,6.5,7.00000000000001));
#274=CARTESIAN_POINT('Ctrl Pts',(-6.49480469405717E-015,6.5,8.08333333333334));
#275=CARTESIAN_POINT('Ctrl Pts',(3.75277674973257,6.5,7.00000000000001));
#276=CARTESIAN_POINT('',(-5.77350269189627,-5.32907051820075E-015,8.));
#277=CARTESIAN_POINT('Origin',(-5.32907051820075E-015,-5.32907051820075E-015,
8.));
#278=CARTESIAN_POINT('Origin',(-3.75277674973257,-6.50000000000001,8.));
#279=CARTESIAN_POINT('',(-3.75277674973257,-6.50000000000001,2.5023595215965));
#280=CARTESIAN_POINT($,(-3.75277674973256,-6.50000000000001,7.));
#281=CARTESIAN_POINT('',(3.75277674973257,-6.5,2.50235952159651));
#282=CARTESIAN_POINT('Ctrl Pts',(3.75277674973265,-6.5,2.5023595215965));
#283=CARTESIAN_POINT('Ctrl Pts',(4.65951525941149E-015,-6.5,3.00513627132909));
#284=CARTESIAN_POINT('Ctrl Pts',(-3.75277674973264,-6.50000000000001,2.5023595215965));
#285=CARTESIAN_POINT($,(3.75277674973257,-6.5,7.));
#286=CARTESIAN_POINT('Origin',(-7.50555349946513,-4.02429051820075E-015,
7.99999999999999));
#287=CARTESIAN_POINT('',(-7.50555349946514,-1.40820319405986E-015,2.50235952159651));
#288=CARTESIAN_POINT($,(-7.50555349946513,-3.54843470342566E-015,6.99999999999999));
#289=CARTESIAN_POINT('Ctrl Pts',(-3.75277674973252,-6.50000000000007,2.5023595215965));
#290=CARTESIAN_POINT('Ctrl Pts',(-5.62916512459885,-3.25000000000001,3.00513627132909));
#291=CARTESIAN_POINT('Ctrl Pts',(-7.50555349946517,6.58284637059402E-014,
2.50235952159651));
#292=CARTESIAN_POINT('Origin',(-2.84630853110679E-015,-2.1094237467878E-015,
4.));
#293=CARTESIAN_POINT('',(1.71150176258351E-030,-3.3235,-2.56930623340502E-015));
#294=CARTESIAN_POINT('Origin',(7.39557082241049E-031,4.93038082241049E-031,
-1.110223E-015));
#295=CARTESIAN_POINT('',(-5.32907051820075E-015,-3.3235,8.));
#296=CARTESIAN_POINT('Origin',(-5.32907051820075E-015,-3.85318951820075E-015,
8.));
#297=CARTESIAN_POINT('Origin',(-3.75277674973258,6.5,8.));
#298=CARTESIAN_POINT('',(-3.75277674973257,6.5,2.50235952159652));
#299=CARTESIAN_POINT($,(-3.75277674973257,6.5,7.00000000000001));
#300=CARTESIAN_POINT('Ctrl Pts',(-7.50555349946516,-4.64664462940599E-014,
2.50235952159651));
#301=CARTESIAN_POINT('Ctrl Pts',(-5.62916512459885,3.25,3.00513627132909));
#302=CARTESIAN_POINT('Ctrl Pts',(-3.75277674973254,6.50000000000005,2.50235952159651));
#303=CARTESIAN_POINT('Origin',(3.75277674973256,-6.5,8.));
#304=CARTESIAN_POINT('',(7.50555349946514,2.29784370594014E-015,2.50235952159652));
#305=CARTESIAN_POINT('Ctrl Pts',(7.50555349946517,5.03531937059401E-014,
2.50235952159652));
#306=CARTESIAN_POINT('Ctrl Pts',(5.62916512459886,-3.24999999999999,3.00513627132909));
#307=CARTESIAN_POINT('Ctrl Pts',(3.75277674973254,-6.50000000000005,2.50235952159651));
#308=CARTESIAN_POINT($,(7.50555349946514,1.57612296574343E-016,7.00000000000001));
#309=CARTESIAN_POINT('Origin',(7.50555349946513,-3.18243518200751E-016,
8.00000000000001));
#310=CARTESIAN_POINT('',(3.75277674973256,6.49999999999999,2.50235952159652));
#311=CARTESIAN_POINT('Ctrl Pts',(3.75277674973254,6.50000000000005,2.50235952159652));
#312=CARTESIAN_POINT('Ctrl Pts',(5.62916512459886,3.25,3.00513627132909));
#313=CARTESIAN_POINT('Ctrl Pts',(7.50555349946517,-4.32920362940599E-014,
2.50235952159652));
#314=CARTESIAN_POINT($,(3.75277674973257,6.5,7.00000000000001));
#315=CARTESIAN_POINT('Origin',(3.75277674973256,6.5,8.));
#316=CARTESIAN_POINT('Ctrl Pts',(-3.75277674973261,6.5,2.50235952159652));
#317=CARTESIAN_POINT('Ctrl Pts',(-8.91599863714292E-016,6.5,3.00513627132909));
#318=CARTESIAN_POINT('Ctrl Pts',(3.75277674973261,6.5,2.50235952159652));
#319=CARTESIAN_POINT('Origin',(-4.77395901820075E-015,-3.94129151820075E-015,
8.));
#320=CARTESIAN_POINT('Origin',(-2.06950007814792E-015,-1.49635407814792E-015,
3.1067332602634));
#321=CARTESIAN_POINT('',(-1.13242748511765E-015,-10.5,1.69999999999999));
#322=CARTESIAN_POINT('Origin',(-1.13242748511766E-015,-8.18802885117658E-016,
1.7));
#323=CARTESIAN_POINT('Origin',(-5.66213742558829E-016,-4.09401442558828E-016,
0.849999999999998));
#324=CARTESIAN_POINT('',(4.6592097214616E-030,-10.5,-6.99440505513849E-015));
#325=CARTESIAN_POINT('Origin',(1.29036314966413E-030,8.09738749664131E-031,
-1.937093E-015));
#326=CARTESIAN_POINT('Origin',(2.3296048607308E-030,-5.25,-3.49720252756924E-015));
#327=UNCERTAINTY_MEASURE_WITH_UNIT(LENGTH_MEASURE(0.01),#329,
'DISTANCE_ACCURACY_VALUE',
'Maximum model space distance between geometric entities at asserted c
onnectivities');
#328=(
GEOMETRIC_REPRESENTATION_CONTEXT(3)
GLOBAL_UNCERTAINTY_ASSIGNED_CONTEXT((#327))
GLOBAL_UNIT_ASSIGNED_CONTEXT((#329,#332,#330))
REPRESENTATION_CONTEXT('','3D')
);
#329=(
LENGTH_UNIT()
NAMED_UNIT(*)
SI_UNIT(.MILLI.,.METRE.)
);
#330=(
NAMED_UNIT(*)
SI_UNIT($,.STERADIAN.)
SOLID_ANGLE_UNIT()
);
#331=DIMENSIONAL_EXPONENTS(0.,0.,0.,0.,0.,0.,0.);
#332=(
CONVERSION_BASED_UNIT('degree',#334)
NAMED_UNIT(#331)
PLANE_ANGLE_UNIT()
);
#333=(
NAMED_UNIT(*)
PLANE_ANGLE_UNIT()
SI_UNIT($,.RADIAN.)
);
#334=PLANE_ANGLE_MEASURE_WITH_UNIT(PLANE_ANGLE_MEASURE(0.01745329252),#333);
#335=SHAPE_DEFINITION_REPRESENTATION(#336,#337);
#336=PRODUCT_DEFINITION_SHAPE('',$,#339);
#337=SHAPE_REPRESENTATION('',(#190),#328);
#338=PRODUCT_DEFINITION_CONTEXT('3D Mechanical Parts',#342,'design');
#339=PRODUCT_DEFINITION('210810','210810',#340,#338);
#340=PRODUCT_DEFINITION_FORMATION('',$,#344);
#341=APPLICATION_PROTOCOL_DEFINITION('international standard',
'automotive_design',2009,#342);
#342=APPLICATION_CONTEXT(
'Core Data for Automotive Mechanical Design Process');
#343=PRODUCT_CONTEXT('3D Mechanical Parts',#342,'mechanical');
#344=PRODUCT('210810','210810',$,(#343));
#345=PRESENTATION_STYLE_ASSIGNMENT((#347));
#346=PRESENTATION_STYLE_ASSIGNMENT((#348));
#347=SURFACE_STYLE_USAGE(.BOTH.,#349);
#348=SURFACE_STYLE_USAGE(.BOTH.,#350);
#349=SURFACE_SIDE_STYLE($,(#351));
#350=SURFACE_SIDE_STYLE($,(#352));
#351=SURFACE_STYLE_FILL_AREA(#353);
#352=SURFACE_STYLE_FILL_AREA(#354);
#353=FILL_AREA_STYLE($,(#355));
#354=FILL_AREA_STYLE($,(#356));
#355=FILL_AREA_STYLE_COLOUR($,#357);
#356=FILL_AREA_STYLE_COLOUR($,#358);
#357=COLOUR_RGB('',0.749019607843137,0.749019607843137,0.749019607843137);
#358=COLOUR_RGB('',0.63921568627451,0.63921568627451,0.686274509803922);
ENDSEC;
END-ISO-10303-21;
