ISO-10303-21;
HEADER;
/* Generated by software containing ST-Developer
 * from STEP Tools, Inc. (www.steptools.com) 
 */

FILE_DESCRIPTION(
/* description */ ('Pevnostn\X\ED matice M 8 l=25 s pru\X2\017E\X0\ino
u'),
/* implementation_level */ '2;1');

FILE_NAME(
/* name */ 
'D:\\VaultPracovni\\Zak\X\E1zky\\2013\\AlutecKK\\stp\\Matice\\210826.s
tp',
/* time_stamp */ '2014-01-15T08:53:25+01:00',
/* author */ ('VeronikaF'),
/* organization */ (''),
/* preprocessor_version */ 'ST-DEVELOPER v15.2',
/* originating_system */ 'Autodesk Inventor 2014',
/* authorisation */ '');

FILE_SCHEMA (('AUTOMOTIVE_DESIGN { 1 0 10303 214 3 1 1 }'));
ENDSEC;

DATA;
#10=SHAPE_REPRESENTATION_RELATIONSHIP('SRR','None',#615,#11);
#11=ADVANCED_BREP_SHAPE_REPRESENTATION($,(#370),#606);
#12=STYLED_ITEM($,(#623),#370);
#13=FACE_BOUND($,#52,.T.);
#14=FACE_BOUND($,#54,.T.);
#15=FACE_BOUND($,#58,.T.);
#16=FACE_BOUND($,#59,.T.);
#17=CYLINDRICAL_SURFACE($,#376,4.);
#18=CYLINDRICAL_SURFACE($,#379,4.);
#19=CYLINDRICAL_SURFACE($,#385,4.);
#20=CYLINDRICAL_SURFACE($,#388,4.);
#21=CYLINDRICAL_SURFACE($,#393,3.3235);
#22=FACE_OUTER_BOUND($,#40,.T.);
#23=FACE_OUTER_BOUND($,#41,.T.);
#24=FACE_OUTER_BOUND($,#42,.T.);
#25=FACE_OUTER_BOUND($,#43,.T.);
#26=FACE_OUTER_BOUND($,#44,.T.);
#27=FACE_OUTER_BOUND($,#45,.T.);
#28=FACE_OUTER_BOUND($,#46,.T.);
#29=FACE_OUTER_BOUND($,#47,.T.);
#30=FACE_OUTER_BOUND($,#48,.T.);
#31=FACE_OUTER_BOUND($,#49,.T.);
#32=FACE_OUTER_BOUND($,#50,.T.);
#33=FACE_OUTER_BOUND($,#51,.T.);
#34=FACE_OUTER_BOUND($,#53,.T.);
#35=FACE_OUTER_BOUND($,#55,.T.);
#36=FACE_OUTER_BOUND($,#56,.T.);
#37=FACE_OUTER_BOUND($,#57,.T.);
#38=FACE_OUTER_BOUND($,#60,.T.);
#39=FACE_OUTER_BOUND($,#61,.T.);
#40=EDGE_LOOP($,(#236,#237,#238,#239,#240,#241));
#41=EDGE_LOOP($,(#242,#243,#244,#245));
#42=EDGE_LOOP($,(#246,#247,#248,#249));
#43=EDGE_LOOP($,(#250,#251,#252,#253));
#44=EDGE_LOOP($,(#254,#255,#256,#257));
#45=EDGE_LOOP($,(#258,#259,#260,#261,#262,#263));
#46=EDGE_LOOP($,(#264,#265,#266,#267));
#47=EDGE_LOOP($,(#268,#269,#270,#271));
#48=EDGE_LOOP($,(#272,#273,#274,#275));
#49=EDGE_LOOP($,(#276,#277,#278,#279));
#50=EDGE_LOOP($,(#280,#281,#282,#283,#284,#285,#286,#287));
#51=EDGE_LOOP($,(#288,#289,#290,#291));
#52=EDGE_LOOP($,(#292));
#53=EDGE_LOOP($,(#293));
#54=EDGE_LOOP($,(#294));
#55=EDGE_LOOP($,(#295,#296,#297,#298,#299,#300,#301,#302));
#56=EDGE_LOOP($,(#303,#304,#305,#306,#307,#308,#309,#310,#311,#312,#313,
#314));
#57=EDGE_LOOP($,(#315,#316,#317,#318,#319,#320,#321,#322));
#58=EDGE_LOOP($,(#323));
#59=EDGE_LOOP($,(#324,#325,#326,#327));
#60=EDGE_LOOP($,(#328,#329,#330,#331));
#61=EDGE_LOOP($,(#332,#333,#334,#335));
#62=CIRCLE($,#373,4.);
#63=CIRCLE($,#374,4.);
#64=CIRCLE($,#377,4.);
#65=CIRCLE($,#380,4.);
#66=CIRCLE($,#382,4.);
#67=CIRCLE($,#383,4.);
#68=CIRCLE($,#386,4.);
#69=CIRCLE($,#389,4.);
#70=CIRCLE($,#392,3.3235);
#71=CIRCLE($,#394,3.3235);
#72=LINE($,#505,#112);
#73=LINE($,#507,#113);
#74=LINE($,#511,#114);
#75=LINE($,#514,#115);
#76=LINE($,#517,#116);
#77=LINE($,#519,#117);
#78=LINE($,#520,#118);
#79=LINE($,#525,#119);
#80=LINE($,#526,#120);
#81=LINE($,#529,#121);
#82=LINE($,#530,#122);
#83=LINE($,#536,#123);
#84=LINE($,#538,#124);
#85=LINE($,#542,#125);
#86=LINE($,#545,#126);
#87=LINE($,#548,#127);
#88=LINE($,#550,#128);
#89=LINE($,#551,#129);
#90=LINE($,#555,#130);
#91=LINE($,#558,#131);
#92=LINE($,#559,#132);
#93=LINE($,#563,#133);
#94=LINE($,#567,#134);
#95=LINE($,#569,#135);
#96=LINE($,#571,#136);
#97=LINE($,#573,#137);
#98=LINE($,#574,#138);
#99=LINE($,#575,#139);
#100=LINE($,#578,#140);
#101=LINE($,#580,#141);
#102=LINE($,#581,#142);
#103=LINE($,#589,#143);
#104=LINE($,#591,#144);
#105=LINE($,#593,#145);
#106=LINE($,#594,#146);
#107=LINE($,#595,#147);
#108=LINE($,#597,#148);
#109=LINE($,#599,#149);
#110=LINE($,#601,#150);
#111=LINE($,#603,#151);
#112=VECTOR($,#405,9.);
#113=VECTOR($,#406,8.45000000000001);
#114=VECTOR($,#409,0.999999999999998);
#115=VECTOR($,#412,8.45000000000001);
#116=VECTOR($,#415,0.0707106781186537);
#117=VECTOR($,#416,8.50000000000001);
#118=VECTOR($,#417,0.05);
#119=VECTOR($,#422,0.05);
#120=VECTOR($,#423,0.05);
#121=VECTOR($,#426,0.999999999999998);
#122=VECTOR($,#427,0.05);
#123=VECTOR($,#434,9.);
#124=VECTOR($,#435,8.45000000000001);
#125=VECTOR($,#438,1.);
#126=VECTOR($,#441,8.45000000000001);
#127=VECTOR($,#444,0.0707106781186545);
#128=VECTOR($,#445,0.05);
#129=VECTOR($,#446,8.50000000000001);
#130=VECTOR($,#451,0.05);
#131=VECTOR($,#454,1.);
#132=VECTOR($,#455,0.05);
#133=VECTOR($,#460,0.05);
#134=VECTOR($,#463,13.);
#135=VECTOR($,#464,3.5);
#136=VECTOR($,#465,3.53553390593274);
#137=VECTOR($,#466,8.);
#138=VECTOR($,#467,3.46482322781408);
#139=VECTOR($,#468,12.);
#140=VECTOR($,#471,25.);
#141=VECTOR($,#472,13.);
#142=VECTOR($,#473,25.);
#143=VECTOR($,#482,3.46482322781408);
#144=VECTOR($,#483,8.);
#145=VECTOR($,#484,3.53553390593274);
#146=VECTOR($,#485,3.5);
#147=VECTOR($,#486,12.);
#148=VECTOR($,#489,7.);
#149=VECTOR($,#492,25.);
#150=VECTOR($,#495,25.);
#151=VECTOR($,#498,25.);
#152=VERTEX_POINT($,#503);
#153=VERTEX_POINT($,#504);
#154=VERTEX_POINT($,#506);
#155=VERTEX_POINT($,#508);
#156=VERTEX_POINT($,#510);
#157=VERTEX_POINT($,#512);
#158=VERTEX_POINT($,#516);
#159=VERTEX_POINT($,#518);
#160=VERTEX_POINT($,#522);
#161=VERTEX_POINT($,#523);
#162=VERTEX_POINT($,#528);
#163=VERTEX_POINT($,#534);
#164=VERTEX_POINT($,#535);
#165=VERTEX_POINT($,#537);
#166=VERTEX_POINT($,#539);
#167=VERTEX_POINT($,#541);
#168=VERTEX_POINT($,#543);
#169=VERTEX_POINT($,#547);
#170=VERTEX_POINT($,#549);
#171=VERTEX_POINT($,#553);
#172=VERTEX_POINT($,#557);
#173=VERTEX_POINT($,#561);
#174=VERTEX_POINT($,#565);
#175=VERTEX_POINT($,#566);
#176=VERTEX_POINT($,#568);
#177=VERTEX_POINT($,#570);
#178=VERTEX_POINT($,#572);
#179=VERTEX_POINT($,#577);
#180=VERTEX_POINT($,#579);
#181=VERTEX_POINT($,#582);
#182=VERTEX_POINT($,#585);
#183=VERTEX_POINT($,#588);
#184=VERTEX_POINT($,#590);
#185=VERTEX_POINT($,#592);
#186=EDGE_CURVE($,#152,#153,#72,.T.);
#187=EDGE_CURVE($,#152,#154,#73,.T.);
#188=EDGE_CURVE($,#154,#155,#62,.T.);
#189=EDGE_CURVE($,#155,#156,#74,.T.);
#190=EDGE_CURVE($,#156,#157,#63,.T.);
#191=EDGE_CURVE($,#157,#153,#75,.T.);
#192=EDGE_CURVE($,#158,#152,#76,.T.);
#193=EDGE_CURVE($,#159,#158,#77,.T.);
#194=EDGE_CURVE($,#159,#154,#78,.T.);
#195=EDGE_CURVE($,#160,#161,#64,.T.);
#196=EDGE_CURVE($,#160,#157,#79,.T.);
#197=EDGE_CURVE($,#161,#156,#80,.T.);
#198=EDGE_CURVE($,#161,#162,#81,.T.);
#199=EDGE_CURVE($,#162,#155,#82,.T.);
#200=EDGE_CURVE($,#162,#159,#65,.T.);
#201=EDGE_CURVE($,#163,#164,#83,.T.);
#202=EDGE_CURVE($,#163,#165,#84,.T.);
#203=EDGE_CURVE($,#165,#166,#66,.T.);
#204=EDGE_CURVE($,#166,#167,#85,.T.);
#205=EDGE_CURVE($,#167,#168,#67,.T.);
#206=EDGE_CURVE($,#168,#164,#86,.T.);
#207=EDGE_CURVE($,#164,#169,#87,.T.);
#208=EDGE_CURVE($,#170,#168,#88,.T.);
#209=EDGE_CURVE($,#169,#170,#89,.T.);
#210=EDGE_CURVE($,#170,#171,#68,.T.);
#211=EDGE_CURVE($,#171,#167,#90,.T.);
#212=EDGE_CURVE($,#171,#172,#91,.T.);
#213=EDGE_CURVE($,#172,#166,#92,.T.);
#214=EDGE_CURVE($,#172,#173,#69,.T.);
#215=EDGE_CURVE($,#173,#165,#93,.T.);
#216=EDGE_CURVE($,#174,#175,#94,.T.);
#217=EDGE_CURVE($,#176,#174,#95,.T.);
#218=EDGE_CURVE($,#177,#176,#96,.T.);
#219=EDGE_CURVE($,#178,#177,#97,.T.);
#220=EDGE_CURVE($,#153,#178,#98,.T.);
#221=EDGE_CURVE($,#175,#160,#99,.T.);
#222=EDGE_CURVE($,#175,#179,#100,.T.);
#223=EDGE_CURVE($,#179,#180,#101,.T.);
#224=EDGE_CURVE($,#180,#174,#102,.T.);
#225=EDGE_CURVE($,#181,#181,#70,.T.);
#226=EDGE_CURVE($,#182,#182,#71,.T.);
#227=EDGE_CURVE($,#183,#163,#103,.T.);
#228=EDGE_CURVE($,#184,#183,#104,.T.);
#229=EDGE_CURVE($,#185,#184,#105,.T.);
#230=EDGE_CURVE($,#180,#185,#106,.T.);
#231=EDGE_CURVE($,#173,#179,#107,.T.);
#232=EDGE_CURVE($,#169,#158,#108,.T.);
#233=EDGE_CURVE($,#183,#178,#109,.T.);
#234=EDGE_CURVE($,#184,#177,#110,.T.);
#235=EDGE_CURVE($,#185,#176,#111,.T.);
#236=ORIENTED_EDGE($,*,*,#186,.F.);
#237=ORIENTED_EDGE($,*,*,#187,.T.);
#238=ORIENTED_EDGE($,*,*,#188,.T.);
#239=ORIENTED_EDGE($,*,*,#189,.T.);
#240=ORIENTED_EDGE($,*,*,#190,.T.);
#241=ORIENTED_EDGE($,*,*,#191,.T.);
#242=ORIENTED_EDGE($,*,*,#192,.F.);
#243=ORIENTED_EDGE($,*,*,#193,.F.);
#244=ORIENTED_EDGE($,*,*,#194,.T.);
#245=ORIENTED_EDGE($,*,*,#187,.F.);
#246=ORIENTED_EDGE($,*,*,#195,.F.);
#247=ORIENTED_EDGE($,*,*,#196,.T.);
#248=ORIENTED_EDGE($,*,*,#190,.F.);
#249=ORIENTED_EDGE($,*,*,#197,.F.);
#250=ORIENTED_EDGE($,*,*,#198,.F.);
#251=ORIENTED_EDGE($,*,*,#197,.T.);
#252=ORIENTED_EDGE($,*,*,#189,.F.);
#253=ORIENTED_EDGE($,*,*,#199,.F.);
#254=ORIENTED_EDGE($,*,*,#200,.F.);
#255=ORIENTED_EDGE($,*,*,#199,.T.);
#256=ORIENTED_EDGE($,*,*,#188,.F.);
#257=ORIENTED_EDGE($,*,*,#194,.F.);
#258=ORIENTED_EDGE($,*,*,#201,.F.);
#259=ORIENTED_EDGE($,*,*,#202,.T.);
#260=ORIENTED_EDGE($,*,*,#203,.T.);
#261=ORIENTED_EDGE($,*,*,#204,.T.);
#262=ORIENTED_EDGE($,*,*,#205,.T.);
#263=ORIENTED_EDGE($,*,*,#206,.T.);
#264=ORIENTED_EDGE($,*,*,#207,.F.);
#265=ORIENTED_EDGE($,*,*,#206,.F.);
#266=ORIENTED_EDGE($,*,*,#208,.F.);
#267=ORIENTED_EDGE($,*,*,#209,.F.);
#268=ORIENTED_EDGE($,*,*,#210,.F.);
#269=ORIENTED_EDGE($,*,*,#208,.T.);
#270=ORIENTED_EDGE($,*,*,#205,.F.);
#271=ORIENTED_EDGE($,*,*,#211,.F.);
#272=ORIENTED_EDGE($,*,*,#212,.F.);
#273=ORIENTED_EDGE($,*,*,#211,.T.);
#274=ORIENTED_EDGE($,*,*,#204,.F.);
#275=ORIENTED_EDGE($,*,*,#213,.F.);
#276=ORIENTED_EDGE($,*,*,#214,.F.);
#277=ORIENTED_EDGE($,*,*,#213,.T.);
#278=ORIENTED_EDGE($,*,*,#203,.F.);
#279=ORIENTED_EDGE($,*,*,#215,.F.);
#280=ORIENTED_EDGE($,*,*,#216,.F.);
#281=ORIENTED_EDGE($,*,*,#217,.F.);
#282=ORIENTED_EDGE($,*,*,#218,.F.);
#283=ORIENTED_EDGE($,*,*,#219,.F.);
#284=ORIENTED_EDGE($,*,*,#220,.F.);
#285=ORIENTED_EDGE($,*,*,#191,.F.);
#286=ORIENTED_EDGE($,*,*,#196,.F.);
#287=ORIENTED_EDGE($,*,*,#221,.F.);
#288=ORIENTED_EDGE($,*,*,#216,.T.);
#289=ORIENTED_EDGE($,*,*,#222,.T.);
#290=ORIENTED_EDGE($,*,*,#223,.T.);
#291=ORIENTED_EDGE($,*,*,#224,.T.);
#292=ORIENTED_EDGE($,*,*,#225,.T.);
#293=ORIENTED_EDGE($,*,*,#226,.F.);
#294=ORIENTED_EDGE($,*,*,#225,.F.);
#295=ORIENTED_EDGE($,*,*,#227,.F.);
#296=ORIENTED_EDGE($,*,*,#228,.F.);
#297=ORIENTED_EDGE($,*,*,#229,.F.);
#298=ORIENTED_EDGE($,*,*,#230,.F.);
#299=ORIENTED_EDGE($,*,*,#223,.F.);
#300=ORIENTED_EDGE($,*,*,#231,.F.);
#301=ORIENTED_EDGE($,*,*,#215,.T.);
#302=ORIENTED_EDGE($,*,*,#202,.F.);
#303=ORIENTED_EDGE($,*,*,#232,.F.);
#304=ORIENTED_EDGE($,*,*,#209,.T.);
#305=ORIENTED_EDGE($,*,*,#210,.T.);
#306=ORIENTED_EDGE($,*,*,#212,.T.);
#307=ORIENTED_EDGE($,*,*,#214,.T.);
#308=ORIENTED_EDGE($,*,*,#231,.T.);
#309=ORIENTED_EDGE($,*,*,#222,.F.);
#310=ORIENTED_EDGE($,*,*,#221,.T.);
#311=ORIENTED_EDGE($,*,*,#195,.T.);
#312=ORIENTED_EDGE($,*,*,#198,.T.);
#313=ORIENTED_EDGE($,*,*,#200,.T.);
#314=ORIENTED_EDGE($,*,*,#193,.T.);
#315=ORIENTED_EDGE($,*,*,#186,.T.);
#316=ORIENTED_EDGE($,*,*,#220,.T.);
#317=ORIENTED_EDGE($,*,*,#233,.F.);
#318=ORIENTED_EDGE($,*,*,#227,.T.);
#319=ORIENTED_EDGE($,*,*,#201,.T.);
#320=ORIENTED_EDGE($,*,*,#207,.T.);
#321=ORIENTED_EDGE($,*,*,#232,.T.);
#322=ORIENTED_EDGE($,*,*,#192,.T.);
#323=ORIENTED_EDGE($,*,*,#226,.T.);
#324=ORIENTED_EDGE($,*,*,#219,.T.);
#325=ORIENTED_EDGE($,*,*,#234,.F.);
#326=ORIENTED_EDGE($,*,*,#228,.T.);
#327=ORIENTED_EDGE($,*,*,#233,.T.);
#328=ORIENTED_EDGE($,*,*,#218,.T.);
#329=ORIENTED_EDGE($,*,*,#235,.F.);
#330=ORIENTED_EDGE($,*,*,#229,.T.);
#331=ORIENTED_EDGE($,*,*,#234,.T.);
#332=ORIENTED_EDGE($,*,*,#217,.T.);
#333=ORIENTED_EDGE($,*,*,#224,.F.);
#334=ORIENTED_EDGE($,*,*,#230,.T.);
#335=ORIENTED_EDGE($,*,*,#235,.T.);
#336=PLANE($,#372);
#337=PLANE($,#375);
#338=PLANE($,#378);
#339=PLANE($,#381);
#340=PLANE($,#384);
#341=PLANE($,#387);
#342=PLANE($,#390);
#343=PLANE($,#391);
#344=PLANE($,#395);
#345=PLANE($,#396);
#346=PLANE($,#397);
#347=PLANE($,#398);
#348=PLANE($,#399);
#349=PLANE($,#400);
#350=ADVANCED_FACE($,(#22),#336,.T.);
#351=ADVANCED_FACE($,(#23),#337,.T.);
#352=ADVANCED_FACE($,(#24),#17,.T.);
#353=ADVANCED_FACE($,(#25),#338,.T.);
#354=ADVANCED_FACE($,(#26),#18,.T.);
#355=ADVANCED_FACE($,(#27),#339,.T.);
#356=ADVANCED_FACE($,(#28),#340,.T.);
#357=ADVANCED_FACE($,(#29),#19,.T.);
#358=ADVANCED_FACE($,(#30),#341,.T.);
#359=ADVANCED_FACE($,(#31),#20,.T.);
#360=ADVANCED_FACE($,(#32),#342,.T.);
#361=ADVANCED_FACE($,(#33,#13),#343,.T.);
#362=ADVANCED_FACE($,(#34,#14),#21,.F.);
#363=ADVANCED_FACE($,(#35),#344,.F.);
#364=ADVANCED_FACE($,(#36),#345,.T.);
#365=ADVANCED_FACE($,(#37),#346,.T.);
#366=ADVANCED_FACE($,(#15,#16),#347,.T.);
#367=ADVANCED_FACE($,(#38),#348,.T.);
#368=ADVANCED_FACE($,(#39),#349,.T.);
#369=CLOSED_SHELL($,(#350,#351,#352,#353,#354,#355,#356,#357,#358,#359,
#360,#361,#362,#363,#364,#365,#366,#367,#368));
#370=MANIFOLD_SOLID_BREP('T\X2\011B\X0\leso1',#369);
#371=AXIS2_PLACEMENT_3D('placement',#501,#401,#402);
#372=AXIS2_PLACEMENT_3D($,#502,#403,#404);
#373=AXIS2_PLACEMENT_3D($,#509,#407,#408);
#374=AXIS2_PLACEMENT_3D($,#513,#410,#411);
#375=AXIS2_PLACEMENT_3D($,#515,#413,#414);
#376=AXIS2_PLACEMENT_3D($,#521,#418,#419);
#377=AXIS2_PLACEMENT_3D($,#524,#420,#421);
#378=AXIS2_PLACEMENT_3D($,#527,#424,#425);
#379=AXIS2_PLACEMENT_3D($,#531,#428,#429);
#380=AXIS2_PLACEMENT_3D($,#532,#430,#431);
#381=AXIS2_PLACEMENT_3D($,#533,#432,#433);
#382=AXIS2_PLACEMENT_3D($,#540,#436,#437);
#383=AXIS2_PLACEMENT_3D($,#544,#439,#440);
#384=AXIS2_PLACEMENT_3D($,#546,#442,#443);
#385=AXIS2_PLACEMENT_3D($,#552,#447,#448);
#386=AXIS2_PLACEMENT_3D($,#554,#449,#450);
#387=AXIS2_PLACEMENT_3D($,#556,#452,#453);
#388=AXIS2_PLACEMENT_3D($,#560,#456,#457);
#389=AXIS2_PLACEMENT_3D($,#562,#458,#459);
#390=AXIS2_PLACEMENT_3D($,#564,#461,#462);
#391=AXIS2_PLACEMENT_3D($,#576,#469,#470);
#392=AXIS2_PLACEMENT_3D($,#583,#474,#475);
#393=AXIS2_PLACEMENT_3D($,#584,#476,#477);
#394=AXIS2_PLACEMENT_3D($,#586,#478,#479);
#395=AXIS2_PLACEMENT_3D($,#587,#480,#481);
#396=AXIS2_PLACEMENT_3D($,#596,#487,#488);
#397=AXIS2_PLACEMENT_3D($,#598,#490,#491);
#398=AXIS2_PLACEMENT_3D($,#600,#493,#494);
#399=AXIS2_PLACEMENT_3D($,#602,#496,#497);
#400=AXIS2_PLACEMENT_3D($,#604,#499,#500);
#401=DIRECTION('axis',(0.,0.,1.));
#402=DIRECTION('refdir',(1.,0.,0.));
#403=DIRECTION('center_axis',(0.,0.,1.));
#404=DIRECTION('ref_axis',(1.,0.,0.));
#405=DIRECTION($,(0.,1.,0.));
#406=DIRECTION($,(1.,0.,0.));
#407=DIRECTION('center_axis',(0.,0.,1.));
#408=DIRECTION('ref_axis',(1.,0.,0.));
#409=DIRECTION($,(0.,1.,0.));
#410=DIRECTION('center_axis',(0.,0.,1.));
#411=DIRECTION('ref_axis',(0.,1.,0.));
#412=DIRECTION($,(-1.,0.,0.));
#413=DIRECTION('center_axis',(0.,-1.,0.));
#414=DIRECTION('ref_axis',(1.,0.,0.));
#415=DIRECTION($,(0.707106781186547,0.,0.707106781186548));
#416=DIRECTION($,(-1.,0.,0.));
#417=DIRECTION($,(0.,0.,1.));
#418=DIRECTION('center_axis',(0.,0.,1.));
#419=DIRECTION('ref_axis',(0.,1.,0.));
#420=DIRECTION('center_axis',(0.,0.,-1.));
#421=DIRECTION('ref_axis',(0.,1.,0.));
#422=DIRECTION($,(0.,0.,1.));
#423=DIRECTION($,(0.,0.,1.));
#424=DIRECTION('center_axis',(1.,0.,0.));
#425=DIRECTION('ref_axis',(0.,1.,0.));
#426=DIRECTION($,(0.,-1.,0.));
#427=DIRECTION($,(0.,0.,1.));
#428=DIRECTION('center_axis',(0.,0.,1.));
#429=DIRECTION('ref_axis',(1.,0.,0.));
#430=DIRECTION('center_axis',(0.,0.,-1.));
#431=DIRECTION('ref_axis',(1.,0.,0.));
#432=DIRECTION('center_axis',(0.,0.,1.));
#433=DIRECTION('ref_axis',(1.,0.,0.));
#434=DIRECTION($,(0.,1.,0.));
#435=DIRECTION($,(1.,0.,0.));
#436=DIRECTION('center_axis',(0.,0.,1.));
#437=DIRECTION('ref_axis',(1.,0.,0.));
#438=DIRECTION($,(-2.22044604925031E-015,1.,0.));
#439=DIRECTION('center_axis',(0.,0.,1.));
#440=DIRECTION('ref_axis',(0.,1.,0.));
#441=DIRECTION($,(-1.,1.85037170770859E-016,0.));
#442=DIRECTION('center_axis',(1.85037170770859E-016,1.,0.));
#443=DIRECTION('ref_axis',(-1.,1.77635683940025E-016,0.));
#444=DIRECTION($,(-0.707106781186547,1.30841038223648E-016,-0.707106781186548));
#445=DIRECTION($,(0.,0.,1.));
#446=DIRECTION($,(1.,-1.85037170770859E-016,0.));
#447=DIRECTION('center_axis',(0.,0.,1.));
#448=DIRECTION('ref_axis',(0.,1.,0.));
#449=DIRECTION('center_axis',(0.,0.,-1.));
#450=DIRECTION('ref_axis',(0.,1.,0.));
#451=DIRECTION($,(0.,0.,1.));
#452=DIRECTION('center_axis',(1.,2.22044604925031E-015,0.));
#453=DIRECTION('ref_axis',(-2.1316282072803E-015,1.,0.));
#454=DIRECTION($,(2.22044604925031E-015,-1.,0.));
#455=DIRECTION($,(0.,0.,1.));
#456=DIRECTION('center_axis',(0.,0.,1.));
#457=DIRECTION('ref_axis',(1.,0.,0.));
#458=DIRECTION('center_axis',(0.,0.,-1.));
#459=DIRECTION('ref_axis',(1.,0.,0.));
#460=DIRECTION($,(0.,0.,1.));
#461=DIRECTION('center_axis',(0.,1.,0.));
#462=DIRECTION('ref_axis',(0.,0.,1.));
#463=DIRECTION($,(-1.70803542250024E-016,0.,-1.));
#464=DIRECTION($,(-1.,0.,6.34413156928661E-016));
#465=DIRECTION($,(-0.707106781186547,0.,0.707106781186548));
#466=DIRECTION($,(1.38777878078145E-016,0.,1.));
#467=DIRECTION($,(0.707106781186547,0.,0.707106781186548));
#468=DIRECTION($,(1.,0.,0.));
#469=DIRECTION('center_axis',(-1.,0.,1.70803542250024E-016));
#470=DIRECTION('ref_axis',(1.70803542250024E-016,0.,1.));
#471=DIRECTION($,(0.,-1.,0.));
#472=DIRECTION($,(1.70803542250024E-016,0.,1.));
#473=DIRECTION($,(0.,1.,0.));
#474=DIRECTION('center_axis',(1.,0.,-1.70803542250024E-016));
#475=DIRECTION('ref_axis',(1.70803542250024E-016,0.,1.));
#476=DIRECTION('center_axis',(-1.,0.,1.70803542250024E-016));
#477=DIRECTION('ref_axis',(1.70803542250024E-016,0.,1.));
#478=DIRECTION('center_axis',(-1.,0.,1.38777878078145E-016));
#479=DIRECTION('ref_axis',(1.70803542250024E-016,0.,1.));
#480=DIRECTION('center_axis',(0.,1.,0.));
#481=DIRECTION('ref_axis',(0.,0.,1.));
#482=DIRECTION($,(-0.707106781186547,0.,-0.707106781186548));
#483=DIRECTION($,(-1.38777878078145E-016,0.,-1.));
#484=DIRECTION($,(0.707106781186547,0.,-0.707106781186548));
#485=DIRECTION($,(1.,0.,-6.34413156928661E-016));
#486=DIRECTION($,(-1.,0.,0.));
#487=DIRECTION('center_axis',(0.,0.,-1.));
#488=DIRECTION('ref_axis',(-1.,0.,0.));
#489=DIRECTION($,(0.,1.,0.));
#490=DIRECTION('center_axis',(0.707106781186548,0.,-0.707106781186547));
#491=DIRECTION('ref_axis',(-0.707106781186547,0.,-0.707106781186548));
#492=DIRECTION($,(0.,1.,0.));
#493=DIRECTION('center_axis',(1.,0.,-1.38777878078145E-016));
#494=DIRECTION('ref_axis',(-1.77635683940025E-016,0.,-1.));
#495=DIRECTION($,(0.,1.,0.));
#496=DIRECTION('center_axis',(0.707106781186548,0.,0.707106781186547));
#497=DIRECTION('ref_axis',(0.707106781186547,0.,-0.707106781186548));
#498=DIRECTION($,(0.,1.,0.));
#499=DIRECTION('center_axis',(6.34413156928661E-016,0.,1.));
#500=DIRECTION('ref_axis',(1.,0.,-6.21724893790088E-016));
#501=CARTESIAN_POINT('',(0.,0.,0.));
#502=CARTESIAN_POINT('Origin',(6.84165496938334,8.,-6.45));
#503=CARTESIAN_POINT('',(3.55,3.5,-6.45));
#504=CARTESIAN_POINT('',(3.55,12.5,-6.45));
#505=CARTESIAN_POINT($,(3.55,4.,-6.45));
#506=CARTESIAN_POINT('',(12.,3.5,-6.45));
#507=CARTESIAN_POINT($,(12.,3.5,-6.45));
#508=CARTESIAN_POINT('',(16.,7.5,-6.45));
#509=CARTESIAN_POINT('Origin',(12.,7.5,-6.45));
#510=CARTESIAN_POINT('',(16.,8.5,-6.45));
#511=CARTESIAN_POINT($,(16.,8.5,-6.45));
#512=CARTESIAN_POINT('',(12.,12.5,-6.45));
#513=CARTESIAN_POINT('Origin',(12.,8.5,-6.45));
#514=CARTESIAN_POINT($,(5.55111512312578E-016,12.5,-6.45));
#515=CARTESIAN_POINT('Origin',(0.,3.5,-6.5));
#516=CARTESIAN_POINT('',(3.5,3.5,-6.5));
#517=CARTESIAN_POINT($,(2.625,3.5,-7.375));
#518=CARTESIAN_POINT('',(12.,3.5,-6.5));
#519=CARTESIAN_POINT($,(12.,3.5,-6.5));
#520=CARTESIAN_POINT($,(12.,3.5,-6.5));
#521=CARTESIAN_POINT('Origin',(12.,8.5,-6.5));
#522=CARTESIAN_POINT('',(12.,12.5,-6.5));
#523=CARTESIAN_POINT('',(16.,8.5,-6.5));
#524=CARTESIAN_POINT('Origin',(12.,8.5,-6.5));
#525=CARTESIAN_POINT($,(12.,12.5,-6.5));
#526=CARTESIAN_POINT($,(16.,8.5,-6.5));
#527=CARTESIAN_POINT('Origin',(16.,7.5,-6.5));
#528=CARTESIAN_POINT('',(16.,7.5,-6.5));
#529=CARTESIAN_POINT($,(16.,8.5,-6.5));
#530=CARTESIAN_POINT($,(16.,7.5,-6.5));
#531=CARTESIAN_POINT('Origin',(12.,7.5,-6.5));
#532=CARTESIAN_POINT('Origin',(12.,7.5,-6.5));
#533=CARTESIAN_POINT('Origin',(6.84165496938333,-8.,-6.45));
#534=CARTESIAN_POINT('',(3.55,-12.5,-6.45));
#535=CARTESIAN_POINT('',(3.55,-3.5,-6.45));
#536=CARTESIAN_POINT($,(3.55,-4.,-6.45));
#537=CARTESIAN_POINT('',(12.,-12.5,-6.45));
#538=CARTESIAN_POINT($,(12.,-12.5,-6.45));
#539=CARTESIAN_POINT('',(16.,-8.5,-6.45));
#540=CARTESIAN_POINT('Origin',(12.,-8.5,-6.45));
#541=CARTESIAN_POINT('',(16.,-7.5,-6.45));
#542=CARTESIAN_POINT($,(16.,-7.5,-6.45));
#543=CARTESIAN_POINT('',(12.,-3.5,-6.45));
#544=CARTESIAN_POINT('Origin',(12.,-7.5,-6.45));
#545=CARTESIAN_POINT($,(0.,-3.5,-6.45));
#546=CARTESIAN_POINT('Origin',(12.,-3.5,-6.5));
#547=CARTESIAN_POINT('',(3.5,-3.5,-6.5));
#548=CARTESIAN_POINT($,(5.625,-3.5,-4.375));
#549=CARTESIAN_POINT('',(12.,-3.5,-6.5));
#550=CARTESIAN_POINT($,(12.,-3.5,-6.5));
#551=CARTESIAN_POINT($,(0.,-3.5,-6.5));
#552=CARTESIAN_POINT('Origin',(12.,-7.5,-6.5));
#553=CARTESIAN_POINT('',(16.,-7.5,-6.5));
#554=CARTESIAN_POINT('Origin',(12.,-7.5,-6.5));
#555=CARTESIAN_POINT($,(16.,-7.5,-6.5));
#556=CARTESIAN_POINT('Origin',(16.,-8.5,-6.5));
#557=CARTESIAN_POINT('',(16.,-8.5,-6.5));
#558=CARTESIAN_POINT($,(16.,-7.5,-6.5));
#559=CARTESIAN_POINT($,(16.,-8.5,-6.5));
#560=CARTESIAN_POINT('Origin',(12.,-8.5,-6.5));
#561=CARTESIAN_POINT('',(12.,-12.5,-6.5));
#562=CARTESIAN_POINT('Origin',(12.,-8.5,-6.5));
#563=CARTESIAN_POINT($,(12.,-12.5,-6.5));
#564=CARTESIAN_POINT('Origin',(2.675640576721,12.5,4.16333634234434E-016));
#565=CARTESIAN_POINT('',(2.22044604925031E-015,12.5,6.5));
#566=CARTESIAN_POINT('',(0.,12.5,-6.5));
#567=CARTESIAN_POINT($,(0.,12.5,-6.5));
#568=CARTESIAN_POINT('',(3.5,12.5,6.5));
#569=CARTESIAN_POINT($,(2.22044604925031E-015,12.5,6.5));
#570=CARTESIAN_POINT('',(6.,12.5,4.));
#571=CARTESIAN_POINT($,(3.5,12.5,6.5));
#572=CARTESIAN_POINT('',(6.,12.5,-4.));
#573=CARTESIAN_POINT($,(6.,12.5,4.));
#574=CARTESIAN_POINT($,(6.,12.5,-4.));
#575=CARTESIAN_POINT($,(5.55111512312578E-016,12.5,-6.5));
#576=CARTESIAN_POINT('Origin',(2.22044604925031E-015,0.,6.5));
#577=CARTESIAN_POINT('',(0.,-12.5,-6.5));
#578=CARTESIAN_POINT($,(0.,0.,-6.5));
#579=CARTESIAN_POINT('',(2.22044604925031E-015,-12.5,6.5));
#580=CARTESIAN_POINT($,(0.,-12.5,-6.5));
#581=CARTESIAN_POINT($,(2.22044604925031E-015,0.,6.5));
#582=CARTESIAN_POINT('',(1.67788859729311E-015,0.,3.3235));
#583=CARTESIAN_POINT('Origin',(4.44089209850063E-015,0.,-9.86076131526265E-031));
#584=CARTESIAN_POINT('Origin',(28.8097205817759,0.,-4.92080232660074E-015));
#585=CARTESIAN_POINT('',(6.,-4.07011363696623E-016,-3.3235));
#586=CARTESIAN_POINT('Origin',(6.,0.,-1.02482125350014E-015));
#587=CARTESIAN_POINT('Origin',(2.675640576721,-12.5,4.16333634234434E-016));
#588=CARTESIAN_POINT('',(6.,-12.5,-4.));
#589=CARTESIAN_POINT($,(6.,-12.5,-4.));
#590=CARTESIAN_POINT('',(6.,-12.5,4.));
#591=CARTESIAN_POINT($,(6.,-12.5,4.));
#592=CARTESIAN_POINT('',(3.5,-12.5,6.5));
#593=CARTESIAN_POINT($,(3.5,-12.5,6.5));
#594=CARTESIAN_POINT($,(2.22044604925031E-015,-12.5,6.5));
#595=CARTESIAN_POINT($,(3.5,-12.5,-6.5));
#596=CARTESIAN_POINT('Origin',(0.,0.,-6.5));
#597=CARTESIAN_POINT($,(3.5,0.,-6.5));
#598=CARTESIAN_POINT('Origin',(3.5,0.,-6.5));
#599=CARTESIAN_POINT($,(6.,0.,-4.));
#600=CARTESIAN_POINT('Origin',(6.,0.,-4.));
#601=CARTESIAN_POINT($,(6.,0.,4.));
#602=CARTESIAN_POINT('Origin',(6.,0.,4.));
#603=CARTESIAN_POINT($,(3.5,0.,6.5));
#604=CARTESIAN_POINT('Origin',(3.5,0.,6.5));
#605=UNCERTAINTY_MEASURE_WITH_UNIT(LENGTH_MEASURE(0.01),#607,
'DISTANCE_ACCURACY_VALUE',
'Maximum model space distance between geometric entities at asserted c
onnectivities');
#606=(
GEOMETRIC_REPRESENTATION_CONTEXT(3)
GLOBAL_UNCERTAINTY_ASSIGNED_CONTEXT((#605))
GLOBAL_UNIT_ASSIGNED_CONTEXT((#607,#610,#608))
REPRESENTATION_CONTEXT('','3D')
);
#607=(
LENGTH_UNIT()
NAMED_UNIT(*)
SI_UNIT(.MILLI.,.METRE.)
);
#608=(
NAMED_UNIT(*)
SI_UNIT($,.STERADIAN.)
SOLID_ANGLE_UNIT()
);
#609=DIMENSIONAL_EXPONENTS(0.,0.,0.,0.,0.,0.,0.);
#610=(
CONVERSION_BASED_UNIT('degree',#612)
NAMED_UNIT(#609)
PLANE_ANGLE_UNIT()
);
#611=(
NAMED_UNIT(*)
PLANE_ANGLE_UNIT()
SI_UNIT($,.RADIAN.)
);
#612=PLANE_ANGLE_MEASURE_WITH_UNIT(PLANE_ANGLE_MEASURE(0.01745329252),#611);
#613=SHAPE_DEFINITION_REPRESENTATION(#614,#615);
#614=PRODUCT_DEFINITION_SHAPE('',$,#617);
#615=SHAPE_REPRESENTATION('',(#371),#606);
#616=PRODUCT_DEFINITION_CONTEXT('3D Mechanical Parts',#620,'design');
#617=PRODUCT_DEFINITION('210826','210826',#618,#616);
#618=PRODUCT_DEFINITION_FORMATION('',$,#622);
#619=APPLICATION_PROTOCOL_DEFINITION('international standard',
'automotive_design',2009,#620);
#620=APPLICATION_CONTEXT(
'Core Data for Automotive Mechanical Design Process');
#621=PRODUCT_CONTEXT('3D Mechanical Parts',#620,'mechanical');
#622=PRODUCT('210826','210826',$,(#621));
#623=PRESENTATION_STYLE_ASSIGNMENT((#624));
#624=SURFACE_STYLE_USAGE(.BOTH.,#625);
#625=SURFACE_SIDE_STYLE($,(#626));
#626=SURFACE_STYLE_FILL_AREA(#627);
#627=FILL_AREA_STYLE($,(#628));
#628=FILL_AREA_STYLE_COLOUR($,#629);
#629=COLOUR_RGB('',0.63921568627451,0.63921568627451,0.686274509803922);
ENDSEC;
END-ISO-10303-21;
