                                                                        S      1
,,,14H220006.stp.ipt,22HAutodesk Inventor 2014,7Hunknown,32,38,7,99,15,,G      1
1.,2,2HMM,1,0.08,15H20151016.101521,0.01,10000.,5Hzeman,,11,0,;         G      2
     406       1                       1                        00000000D      1
     406                       1       3                               0D      2
     186       2                                                00000000D      3
     186            -131       1       0                               0D      4
     514       3                                                00010000D      5
     514                       1       1                               0D      6
     196       4                                                00010000D      7
     196       0    -131       1       1                               0D      8
     190       5                                                00010000D      9
     190       0    -131       1       1                               0D     10
     190       6                                                00010000D     11
     190       0    -131       1       1                               0D     12
     192       7                                                00010000D     13
     192       0    -131       1       1                               0D     14
     123       8                                                00010200D     15
     123       0               1       0                               0D     16
     123       9                                                00010200D     17
     123       0               1       0                               0D     18
     123      10                                                00010200D     19
     123       0               1       0                               0D     20
     123      11                                                00010200D     21
     123       0               1       0                               0D     22
     123      12                                                00010200D     23
     123       0               1       0                               0D     24
     123      13                                                00010200D     25
     123       0               1       0                               0D     26
     123      14                                                00010200D     27
     123       0               1       0                               0D     28
     123      15                                                00010200D     29
     123       0               1       0                               0D     30
     116      16                                                00010000D     31
     116       0               1       0                               0D     32
     116      17                                                00010000D     33
     116       0               1       0                               0D     34
     116      18                                                00010000D     35
     116       0               1       0                               0D     36
     116      19                                                00010000D     37
     116       0               1       0                               0D     38
     510      20                                                00010000D     39
     510            -131       1       1                               0D     40
     510      21                                                00010000D     41
     510            -131       1       1                               0D     42
     510      22                                                00010000D     43
     510            -131       1       1                               0D     44
     510      23                                                00010000D     45
     510            -131       1       1                               0D     46
     510      24                                                00010000D     47
     510            -131       1       1                               0D     48
     510      25                                                00010000D     49
     510            -131       1       1                               0D     50
     508      26                                                00010000D     51
     508                       2       1                               0D     52
     508      28                                                00010000D     53
     508                       1       1                               0D     54
     508      29                                                00010000D     55
     508                       1       1                               0D     56
     508      30                                                00010000D     57
     508                       1       1                               0D     58
     508      31                                                00010000D     59
     508                       1       1                               0D     60
     508      32                                                00010000D     61
     508                       1       1                               0D     62
     508      33                                                00010000D     63
     508                       1       1                               0D     64
     508      34                                                00010000D     65
     508                       2       1                               0D     66
     120      36                                                00010000D     67
     120       0    -131       1       0                               0D     68
     120      37                                                00010000D     69
     120       0    -131       1       0                               0D     70
     124      38                                                00000000D     71
     124                       2       0                               0D     72
     124      40                                                00000000D     73
     124                       1       0                               0D     74
     124      41                                                00000000D     75
     124                       2       0                               0D     76
     124      43                                                00000000D     77
     124                       1       0                               0D     78
     124      44                                                00000000D     79
     124                       1       0                               0D     80
     124      45                                                00000000D     81
     124                       1       0                               0D     82
     124      46                                                00000000D     83
     124                       1       0                               0D     84
     124      47                                                00000000D     85
     124                       1       0                               0D     86
     124      48                                                00000000D     87
     124                       1       0                               0D     88
     124      49                                                00000000D     89
     124                       1       0                               0D     90
     124      50                                                00000000D     91
     124                       1       0                               0D     92
     100      51                                      71        00010000D     93
     100       0               2       0                               0D     94
     100      53                                      73        00010000D     95
     100       0               1       0                               0D     96
     100      54                                      75        00010000D     97
     100       0               1       0                               0D     98
     100      55                                      77        00010000D     99
     100       0               2       0                               0D    100
     100      57                                      79        00010000D    101
     100       0               2       0                               0D    102
     100      59                                      81        00010000D    103
     100       0               2       0                               0D    104
     100      61                                      83        00010000D    105
     100       0               1       0                               0D    106
     100      62                                      85        00010000D    107
     100       0               1       0                               0D    108
     100      63                                      87        00010000D    109
     100       0               1       0                               0D    110
     100      64                                      89        00010000D    111
     100       0               2       0                               0D    112
     100      66                                      91        00010000D    113
     100       0               2       0                               0D    114
     110      68                                                00010000D    115
     110       0               1       0                               0D    116
     110      69                                                00010000D    117
     110       0               1       0                               0D    118
     110      70                                                00010000D    119
     110       0               2       0                               0D    120
     110      72                                                00010000D    121
     110       0               2       0                               0D    122
     502      74                                                00010000D    123
     502                       5       1                               0D    124
     504      79                                                00010001D    125
     504                       3       1                               0D    126
     406      82                                                00000000D    127
     406                       1      15                               0D    128
     314      83                                                00000200D    129
     314                       1       0                               0D    130
     314      84                                                00000200D    131
     314                       1       0                               0D    132
406,2,0,10H220006.stp;                                                 1P      1
186,5,1,0,0,1,127;                                                     3P      2
514,6,39,1,41,1,43,1,45,1,47,1,49,1;                                   5P      3
196,35,6.62500000000001,23,25;                                         7P      4
190,33,19,21;                                                          9P      5
190,37,27,29;                                                         11P      6
192,31,15,3.,17;                                                      13P      7
123,0.,1.,0.;                                                         15P      8
123,-1.,0.,0.;                                                        17P      9
123,0.,-1.,0.;                                                        19P     10
123,0.,0.,-1.;                                                        21P     11
123,6.12323399573677D-017,0.,1.;                                      23P     12
123,1.,0.,0.;                                                         25P     13
123,0.,-1.,0.;                                                        27P     14
123,0.,0.,-1.;                                                        29P     15
116,0.,-2.,0.,0;                                                      31P     16
116,-3.25,0.,0.,0;                                                    33P     17
116,6.383782D-015,-5.625,0.,0;                                        35P     18
116,-1.3,0.,0.,0;                                                     37P     19
510,67,1,1,51;                                                        39P     20
510,13,2,1,53,55;                                                     41P     21
510,9,2,1,57,59;                                                      43P     22
510,7,1,1,61;                                                         45P     23
510,11,1,1,63;                                                        47P     24
510,69,1,1,65;                                                        49P     25
508,7,0,125,1,1,0,0,125,2,1,0,0,125,3,1,0,0,125,4,1,0,0,125,5,1,      51P     26
0,0,125,2,0,0,0,125,6,1,0;                                            51P     27
508,1,0,125,7,0,0;                                                    53P     28
508,2,0,125,1,0,0,0,125,6,0,0;                                        55P     29
508,1,0,125,8,0,0;                                                    57P     30
508,1,0,125,7,1,0;                                                    59P     31
508,1,0,125,8,1,0;                                                    61P     32
508,2,0,125,9,0,0,0,125,10,0,0;                                       63P     33
508,7,0,125,4,0,0,0,125,3,0,0,0,125,5,0,0,0,125,11,1,0,0,125,10,      65P     34
1,0,0,125,9,1,0,0,125,11,0,0;                                         65P     35
120,115,93,0.,6.28318530717959;                                       67P     36
120,117,119,0.,6.28318530717959;                                      69P     37
124,-1.22464679914735D-016,-0.,-1.,-3.18408167778311D-016,-0.,        71P     38
-1.,-0.,-3.6,-1.,-0.,1.22464679914735D-016,-2.6;                      71P     39
124,1.,-0.,0.,0.,0.,0.,-1.,-3.6,0.,1.,0.,0.;                          73P     40
124,-1.22464679914735D-016,-0.,-1.,-3.18408167778311D-016,-0.,        75P     41
-1.,0.,-3.6,-1.,-0.,1.22464679914735D-016,-2.6;                       75P     42
124,-1.,-0.,0.,0.,-0.,-0.,1.,-4.,0.,1.,0.,0.;                         77P     43
124,-1.,-0.,0.,0.,-0.,-0.,1.,-4.,0.,1.,0.,0.;                         79P     44
124,-1.,-0.,0.,0.,-0.,-0.,1.,-4.,0.,1.,0.,0.;                         81P     45
124,1.,-0.,0.,0.,0.,0.,-1.,-3.6,0.,1.,0.,0.;                          83P     46
124,-1.,-0.,0.,0.,-0.,-0.,1.,0.,0.,1.,0.,0.;                          85P     47
124,-1.,-0.,0.,0.,-0.,-0.,1.,0.,0.,1.,0.,0.;                          87P     48
124,-1.,-0.,0.,0.,-0.,-0.,1.,0.,0.,1.,0.,0.;                          89P     49
124,-1.,-0.,0.,0.,-0.,-0.,1.,0.,0.,1.,0.,0.;                          91P     50
100,0.,0.,0.,0.4,-5.90638649100583D-014,-2.62012633811537D-014,       93P     51
0.4;                                                                  93P     52
100,0.,0.,0.,-3.,-7.347638D-016,-3.67394039744206D-016,-3.;           95P     53
100,0.,0.,0.,0.4,0.,-2.22044604925031D-015,0.4;                       97P     54
100,0.,0.,0.,3.18408167778311D-016,-2.59999999999999,                 99P     55
2.59999999999999,0.;                                                  99P     56
100,0.,0.,0.,2.59999999999999,0.,-2.59999999999999,                  101P     57
-3.18408167778311D-016;                                              101P     58
100,0.,0.,0.,-2.59999999999999,-3.18408167778311D-016,               103P     59
3.18408167778311D-016,-2.59999999999999;                             103P     60
100,0.,0.,0.,-3.67394039744206D-016,-3.,-3.,-7.347638D-016;          105P     61
100,0.,0.,0.,3.,0.,3.,0.;                                            107P     62
100,0.,0.,0.,3.49999999999999,0.,3.49999999999999,0.;                109P     63
100,0.,0.,0.,2.59999999999999,0.,-2.59999999999999,                  111P     64
-3.18408167778311D-016;                                              111P     65
100,0.,0.,0.,-2.59999999999999,-3.18408167778311D-016,               113P     66
2.59999999999999,0.;                                                 113P     67
110,0.,-3.6,0.,0.,-2.6,0.;                                           115P     68
110,0.,-2.,0.,0.,-1.,0.;                                             117P     69
110,2.59999999999999,-4.,-3.18408167778311D-016,                     119P     70
2.59999999999999,0.,-3.18408167778311D-016;                          119P     71
110,2.59999999999999,-4.,-3.18408167778311D-016,                     121P     72
2.59999999999999,0.,-3.18408167778311D-016;                          121P     73
502,9,-3.,-3.6,-7.347638D-016,-3.67394039744206D-016,-3.6,-3.,       123P     74
-3.18408167778311D-016,-4.,-2.59999999999999,-2.59999999999999,      123P     75
-4.,0.,2.59999999999999,-4.,-3.18408167778311D-016,-3.,0.,0.,        123P     76
-3.49999999999999,0.,0.,-2.59999999999999,0.,0.,                     123P     77
2.59999999999999,0.,-3.18408167778311D-016;                          123P     78
504,11,95,123,1,123,2,97,123,2,123,3,99,123,3,123,4,101,123,4,       125P     79
123,5,103,123,5,123,3,105,123,2,123,1,107,123,6,123,6,109,123,7,     125P     80
123,7,111,123,8,123,9,113,123,9,123,8,121,123,5,123,9;               125P     81
406,1,8HTěleso1;                                                    127P     82
314,74.9019607843137,74.9019607843137,74.9019607843137,;             129P     83
314,0.,0.,0.,;                                                       131P     84
S      1G      2D    132P     84                                        T      1
