                                                                        S      1
,,,14H220007.stp.ipt,22HAutodesk Inventor 2014,7Hunknown,32,38,7,99,15,,G      1
1.,2,2HMM,1,0.08,15H20151016.101522,0.01,10000.,5Hzeman,,11,0,;         G      2
     406       1                       1                        00000000D      1
     406                       1       3                               0D      2
     186       2                                                00000000D      3
     186            -141       1       0                               0D      4
     514       3                                                00010000D      5
     514                       1       1                               0D      6
     120       4                                                00010000D      7
     120       0    -141       1       0                               0D      8
     110       5                                                00010000D      9
     110       0               1       0                               0D     10
     110       6                                                00010000D     11
     110       0               2       0                               0D     12
     110       8                                                00010000D     13
     110       0               2       0                               0D     14
     128      10                                                00010000D     15
     128       0    -141      40       0                               0D     16
     192      50                                                00010000D     17
     192       0    -141       1       1                               0D     18
     190      51                                                00010000D     19
     190       0    -141       1       1                               0D     20
     190      52                                                00010000D     21
     190       0    -141       1       1                               0D     22
     190      53                                                00010000D     23
     190       0    -141       1       1                               0D     24
     510      54                                                00010000D     25
     510            -141       1       1                               0D     26
     510      55                                                00010000D     27
     510            -141       1       1                               0D     28
     510      56                                                00010000D     29
     510            -141       1       1                               0D     30
     510      57                                                00010000D     31
     510            -141       1       1                               0D     32
     510      58                                                00010000D     33
     510            -141       1       1                               0D     34
     510      59                                                00010000D     35
     510            -141       1       1                               0D     36
     510      60                                                00010000D     37
     510            -141       1       1                               0D     38
     508      61                                                00010000D     39
     508                       1       1                               0D     40
     508      62                                                00010000D     41
     508                       1       1                               0D     42
     508      63                                                00010000D     43
     508                       1       1                               0D     44
     508      64                                                00010000D     45
     508                       1       1                               0D     46
     508      65                                                00010000D     47
     508                       1       1                               0D     48
     508      66                                                00010000D     49
     508                       1       1                               0D     50
     508      67                                                00010000D     51
     508                       1       1                               0D     52
     508      68                                                00010000D     53
     508                       1       1                               0D     54
     508      69                                                00010000D     55
     508                       1       1                               0D     56
     508      70                                                00010000D     57
     508                       1       1                               0D     58
     508      71                                                00010000D     59
     508                       2       1                               0D     60
     124      73                                                00000000D     61
     124                       1       0                               0D     62
     124      74                                                00000000D     63
     124                       1       0                               0D     64
     124      75                                                00000000D     65
     124                       1       0                               0D     66
     124      76                                                00000000D     67
     124                       1       0                               0D     68
     124      77                                                00000000D     69
     124                       2       0                               0D     70
     124      79                                                00000000D     71
     124                       2       0                               0D     72
     124      81                                                00000000D     73
     124                       2       0                               0D     74
     124      83                                                00000000D     75
     124                       5       0                               0D     76
     124      88                                                00000000D     77
     124                       2       0                               0D     78
     124      90                                                00000000D     79
     124                       2       0                               0D     80
     100      92                                      61        00010000D     81
     100       0               2       0                               0D     82
     100      94                                      63        00010000D     83
     100       0               2       0                               0D     84
     100      96                                      65        00010000D     85
     100       0               2       0                               0D     86
     100      98                                      67        00010000D     87
     100       0               2       0                               0D     88
     100     100                                      69        00010000D     89
     100       0               1       0                               0D     90
     100     101                                      71        00010000D     91
     100       0               1       0                               0D     92
     100     102                                      73        00010000D     93
     100       0               1       0                               0D     94
     100     103                                      75        00010000D     95
     100       0               2       0                               0D     96
     100     105                                      77        00010000D     97
     100       0               2       0                               0D     98
     100     107                                      79        00010000D     99
     100       0               2       0                               0D    100
     194     109                                                00010000D    101
     194       0    -141       1       1                               0D    102
     123     110                                                00010200D    103
     123       0               1       0                               0D    104
     123     111                                                00010200D    105
     123       0               1       0                               0D    106
     123     112                                                00010200D    107
     123       0               1       0                               0D    108
     123     113                                                00010200D    109
     123       0               1       0                               0D    110
     123     114                                                00010200D    111
     123       0               1       0                               0D    112
     123     115                                                00010200D    113
     123       0               1       0                               0D    114
     123     116                                                00010200D    115
     123       0               1       0                               0D    116
     123     117                                                00010200D    117
     123       0               1       0                               0D    118
     123     118                                                00010200D    119
     123       0               1       0                               0D    120
     123     119                                                00010200D    121
     123       0               1       0                               0D    122
     116     120                                                00010000D    123
     116       0               1       0                               0D    124
     116     121                                                00010000D    125
     116       0               1       0                               0D    126
     116     122                                                00010000D    127
     116       0               1       0                               0D    128
     116     123                                                00010000D    129
     116       0               1       0                               0D    130
     116     124                                                00010000D    131
     116       0               1       0                               0D    132
     502     125                                                00010000D    133
     502                       7       1                               0D    134
     504     132                                                00010001D    135
     504                       3       1                               0D    136
     406     135                                                00000000D    137
     406                       1      15                               0D    138
     314     136                                                00000200D    139
     314                       1       0                               0D    140
     314     137                                                00000200D    141
     314                       1       0                               0D    142
406,2,0,10H220007.stp;                                                 1P      1
186,5,1,0,0,1,137;                                                     3P      2
514,7,25,1,27,1,29,1,31,1,33,1,35,1,37,1;                              5P      3
120,9,11,0.,6.28318530717959;                                          7P      4
110,1.17383D-015,-3.4,0.,7.979732D-016,-2.4,0.;                        9P      5
110,2.90000000000001,-6.8,-3.55147571752733D-016,                     11P      6
2.90000000000001,3.5527136788005D-015,-3.55147571752733D-016;         11P      7
110,2.90000000000001,-6.8,-3.55147571752733D-016,                     13P      8
2.90000000000001,3.33066907387547D-015,-3.55147571752733D-016;        13P      9
128,2,8,2,2,0,1,0,0,0,-1.5757994765996,-1.5757994765996,              15P     10
-1.5757994765996,-1.07583585073764,-1.07583585073764,                 15P     11
-1.07583585073764,-3.14159265358979,-3.14159265358979,                15P     12
-3.14159265358979,-1.5707963267949,-1.5707963267949,0.,0.,            15P     13
1.5707963267949,1.5707963267949,3.14159265358979,                     15P     14
3.14159265358979,3.14159265358979,1.,0.968916921103285,1.,            15P     15
0.707106781186548,0.685127725318524,0.707106781186548,1.,             15P     16
0.968916921103285,1.,0.707106781186548,0.685127725318524,             15P     17
0.707106781186548,1.,0.968916921103285,1.,0.707106781186548,          15P     18
0.685127725318524,0.707106781186548,1.,0.968916921103285,1.,          15P     19
0.707106781186548,0.685127725318524,0.707106781186548,1.,             15P     20
0.968916921103285,1.,-1.08041165474702D-011,                          15P     21
3.43258754753606D-011,4.79999999993574,-1.22609233029598D-011,        15P     22
1.21277411630685,2.55319352900574,-1.22455787976153D-011,             15P     23
1.20000000000001,-6.05819209932283D-011,-4.79999999999997,            15P     24
2.85600264747659D-011,4.79999999993574,-2.55319352907865,             15P     25
1.21277411630378,2.55319352900574,-1.22456440650743D-011,             15P     26
1.20000000000001,-6.05819209932283D-011,-4.79999999999997,            15P     27
-5.70822079720938D-014,-5.3427573516249D-011,-2.55319352907866,       15P     28
1.21277411628856,-6.06581456776654D-011,-1.22456440650743D-011,       15P     29
1.20000000000001,-6.05819862606873D-011,-4.79999999999997,            15P     30
-2.86741908907101D-011,-4.8000000000426,-2.55319352907865,            15P     31
1.21277411627334,-2.55319352912705,-1.22456440650743D-011,            15P     32
1.20000000000001,-6.05820515281463D-011,-1.08041165474702D-011,       15P     33
-2.29083418901155D-011,-4.8000000000426,-1.22609233029598D-011,       15P     34
1.21277411627641,-2.55319352912705,-1.22455787976153D-011,            15P     35
1.20000000000001,-6.05820515281463D-011,4.79999999997836,             15P     36
-1.71424928895208D-011,-4.8000000000426,2.55319352905413,             15P     37
1.21277411627947,-2.55319352912705,-1.22455135301562D-011,            15P     38
1.20000000000001,-6.05820515281463D-011,4.79999999997836,             15P     39
1.14746157932172D-011,-5.34275735163178D-011,2.55319352905413,        15P     40
1.2127741162947,-6.0658145677702D-011,-1.22455135301562D-011,         15P     41
1.20000000000001,-6.05819862606873D-011,4.79999999997836,             15P     42
4.00917244759552D-011,4.79999999993574,2.55319352905413,              15P     43
1.21277411630992,2.55319352900574,-1.22455135301562D-011,             15P     44
1.20000000000001,-6.05819209932283D-011,-1.08041165474702D-011,       15P     45
3.43258754753606D-011,4.79999999993574,-1.22609233029598D-011,        15P     46
1.21277411630685,2.55319352900574,-1.22455787976153D-011,             15P     47
1.20000000000001,-6.05819209932283D-011,-1.5757994765996,             15P     48
-1.07583585073764,-3.14159265358979,3.14159265358979;                 15P     49
192,127,111,3.70000000000001,113;                                     17P     50
190,125,107,109;                                                      19P     51
190,129,115,117;                                                      21P     52
190,131,119,121;                                                      23P     53
510,101,2,1,39,41;                                                    25P     54
510,19,2,1,43,45;                                                     27P     55
510,17,2,1,47,49;                                                     29P     56
510,21,2,1,51,53;                                                     31P     57
510,15,1,1,55;                                                        33P     58
510,23,1,1,57;                                                        35P     59
510,7,1,1,59;                                                         37P     60
508,1,0,135,1,1,0;                                                    39P     61
508,1,0,135,2,1,0;                                                    41P     62
508,1,0,135,1,0,0;                                                    43P     63
508,2,0,135,3,1,0,0,135,4,1,0;                                        45P     64
508,1,0,135,5,0,0;                                                    47P     65
508,1,0,135,2,0,0;                                                    49P     66
508,2,0,135,6,0,0,0,135,7,0,0;                                        51P     67
508,1,0,135,5,1,0;                                                    53P     68
508,4,0,135,6,1,0,0,135,8,1,0,0,135,8,0,0,0,135,7,1,0;                55P     69
508,2,0,135,9,0,0,0,135,10,0,0;                                       57P     70
508,6,0,135,3,0,0,0,135,4,0,0,0,135,11,1,0,0,135,10,1,0,0,135,9,      59P     71
1,0,0,135,11,0,0;                                                     59P     72
124,1.,-0.,-0.,2.451743D-015,-0.,0.,1.,-6.8,0.,-1.,0.,0.;             61P     73
124,1.,-0.,0.,1.700029D-015,0.,0.,-1.,-4.8,0.,1.,0.,0.;               63P     74
124,-1.,-0.,0.,2.451743D-015,-0.,-0.,1.,-6.8,0.,1.,0.,0.;             65P     75
124,-1.,-0.,0.,2.451743D-015,-0.,-0.,1.,-6.8,0.,1.,0.,0.;             67P     76
124,-1.,-0.,0.,-1.040834D-016,-0.,-0.,1.,2.220446D-015,0.,1.,0.,      69P     77
0.;                                                                   69P     78
124,-1.,-0.,0.,-1.040834D-016,-0.,-0.,1.,3.330669D-015,0.,1.,0.,      71P     79
0.;                                                                   71P     80
124,-1.,-0.,0.,-1.040834D-016,-0.,-0.,1.,3.330669D-015,0.,1.,0.,      73P     81
0.;                                                                   73P     82
124,-1.22464679914653D-016,-1.20121854179326D-012,-1.,                75P     83
-2.33549847994883D-013,5.96197645558498D-012,1.,                      75P     84
-1.20121854179326D-012,-8.79987484271884,1.,                          75P     85
-5.96197645558498D-012,-1.22464672753017D-016,                        75P     86
0.0500312893189832;                                                   75P     87
124,-1.,-0.,0.,-1.040834D-016,-0.,-0.,1.,1.110223D-015,0.,1.,0.,      77P     88
0.;                                                                   77P     89
124,-1.,-0.,0.,-1.040834D-016,-0.,-0.,1.,1.110223D-015,0.,1.,0.,      79P     90
0.;                                                                   79P     91
100,0.,0.,0.,-2.9720595314676,-3.639603D-016,-2.9720595314676,        81P     92
-3.639603D-016;                                                       81P     93
100,0.,0.,0.,-3.70000000000001,-4.531044D-016,-3.70000000000001,      83P     94
-4.531044D-016;                                                       83P     95
100,0.,0.,0.,2.90000000000001,0.,-2.90000000000001,                   85P     96
-3.55147571752733D-016;                                               85P     97
100,0.,0.,0.,-2.90000000000001,-3.55147571752733D-016,                87P     98
2.90000000000001,0.;                                                  87P     99
100,0.,0.,0.,3.70000000000001,0.,3.70000000000001,0.;                 89P    100
100,0.,0.,0.,4.8,0.,1.08046002945338D-011,4.79999999993574;           91P    101
100,0.,0.,0.,1.08046002945338D-011,4.79999999993574,4.8,0.;           93P    102
100,0.,0.,0.,4.74996871066922,8.79987484272485,                       95P    103
-0.0500312893199462,9.99987484271915;                                 95P    104
100,0.,0.,0.,2.90000000000001,0.,-2.90000000000001,                   97P    105
-3.55147571752733D-016;                                               97P    106
100,0.,0.,0.,-2.90000000000001,-3.55147571752733D-016,                99P    107
2.90000000000001,0.;                                                  99P    108
194,123,103,3.3360297657338,20.,105;                                 101P    109
123,-3.758568D-016,1.,0.;                                            103P    110
123,1.,3.758568D-016,0.;                                             105P    111
123,0.,-1.,0.;                                                       107P    112
123,0.,0.,-1.;                                                       109P    113
123,-3.758568D-016,1.,0.;                                            111P    114
123,-1.,-3.758568D-016,0.;                                           113P    115
123,0.,-1.,0.;                                                       115P    116
123,0.,0.,-1.;                                                       117P    117
123,0.,-1.,0.;                                                       119P    118
123,0.,0.,-1.;                                                       121P    119
116,2.075886D-015,-5.8,0.,0;                                         123P    120
116,-3.3,-6.8,0.,0;                                                  125P    121
116,1.17383D-015,-3.4,0.,0;                                          127P    122
116,-4.25000000000001,1.110223D-015,0.,0;                            129P    123
116,-1.45,1.110223D-015,0.,0;                                        131P    124
502,10,-2.9720595314676,-6.8,3.639603D-016,-3.70000000000001,        133P    125
-4.8,-4.531044D-016,-2.9,-6.8,0.,2.90000000000001,-6.8,              133P    126
-3.55147571752733D-016,-3.70000000000001,1.110223D-015,0.,-4.8,      133P    127
1.110223D-015,0.,-1.08047043779338D-011,3.43269856983852D-011,       133P    128
4.79999999993574,-1.22455787976153D-011,1.20000000000001,            133P    129
-6.05819862606873D-011,-2.90000000000001,0.,0.,2.90000000000001,     133P    130
3.33066907387547D-015,-3.55147571752733D-016;                        133P    131
504,11,81,133,1,133,1,83,133,2,133,2,85,133,3,133,4,87,133,4,        135P    132
133,3,89,133,5,133,5,91,133,6,133,7,93,133,7,133,6,95,133,7,133,     135P    133
8,97,133,9,133,10,99,133,10,133,9,13,133,4,133,10;                   135P    134
406,1,8HTěleso1;                                                    137P    135
314,74.9019607843137,74.9019607843137,74.9019607843137,;             139P    136
314,0.,0.,0.,;                                                       141P    137
S      1G      2D    142P    137                                        T      1
