                                                                        S      1
,,,14H220013.stp.ipt,22HAutodesk Inventor 2014,7Hunknown,32,38,7,99,15,,G      1
1.,2,2HMM,1,0.08,15H20151016.101524,0.01,10000.,5Hzeman,,11,0,;         G      2
     406       1                       1                        00000000D      1
     406                       1       3                               0D      2
     186       2                                                00000000D      3
     186            -141       1       0                               0D      4
     514       3                                                00010000D      5
     514                       1       1                               0D      6
     120       4                                                00010000D      7
     120       0    -141       1       0                               0D      8
     110       5                                                00010000D      9
     110       0               1       0                               0D     10
     110       6                                                00010000D     11
     110       0               2       0                               0D     12
     110       8                                                00010000D     13
     110       0               2       0                               0D     14
     128      10                                                00010000D     15
     128       0    -141      40       0                               0D     16
     192      50                                                00010000D     17
     192       0    -141       1       1                               0D     18
     190      51                                                00010000D     19
     190       0    -141       1       1                               0D     20
     190      52                                                00010000D     21
     190       0    -141       1       1                               0D     22
     190      53                                                00010000D     23
     190       0    -141       1       1                               0D     24
     510      54                                                00010000D     25
     510            -141       1       1                               0D     26
     510      55                                                00010000D     27
     510            -141       1       1                               0D     28
     510      56                                                00010000D     29
     510            -141       1       1                               0D     30
     510      57                                                00010000D     31
     510            -141       1       1                               0D     32
     510      58                                                00010000D     33
     510            -141       1       1                               0D     34
     510      59                                                00010000D     35
     510            -141       1       1                               0D     36
     510      60                                                00010000D     37
     510            -141       1       1                               0D     38
     508      61                                                00010000D     39
     508                       1       1                               0D     40
     508      62                                                00010000D     41
     508                       1       1                               0D     42
     508      63                                                00010000D     43
     508                       1       1                               0D     44
     508      64                                                00010000D     45
     508                       1       1                               0D     46
     508      65                                                00010000D     47
     508                       1       1                               0D     48
     508      66                                                00010000D     49
     508                       1       1                               0D     50
     508      67                                                00010000D     51
     508                       1       1                               0D     52
     508      68                                                00010000D     53
     508                       1       1                               0D     54
     508      69                                                00010000D     55
     508                       1       1                               0D     56
     508      70                                                00010000D     57
     508                       1       1                               0D     58
     508      71                                                00010000D     59
     508                       2       1                               0D     60
     124      73                                                00000000D     61
     124                       2       0                               0D     62
     124      75                                                00000000D     63
     124                       2       0                               0D     64
     124      77                                                00000000D     65
     124                       2       0                               0D     66
     124      79                                                00000000D     67
     124                       2       0                               0D     68
     124      81                                                00000000D     69
     124                       2       0                               0D     70
     124      83                                                00000000D     71
     124                       2       0                               0D     72
     124      85                                                00000000D     73
     124                       2       0                               0D     74
     124      87                                                00000000D     75
     124                       4       0                               0D     76
     124      91                                                00000000D     77
     124                       2       0                               0D     78
     124      93                                                00000000D     79
     124                       2       0                               0D     80
     100      95                                      61        00010000D     81
     100       0               2       0                               0D     82
     100      97                                      63        00010000D     83
     100       0               2       0                               0D     84
     100      99                                      65        00010000D     85
     100       0               2       0                               0D     86
     100     101                                      67        00010000D     87
     100       0               2       0                               0D     88
     100     103                                      69        00010000D     89
     100       0               1       0                               0D     90
     100     104                                      71        00010000D     91
     100       0               2       0                               0D     92
     100     106                                      73        00010000D     93
     100       0               2       0                               0D     94
     100     108                                      75        00010000D     95
     100       0               2       0                               0D     96
     100     110                                      77        00010000D     97
     100       0               2       0                               0D     98
     100     112                                      79        00010000D     99
     100       0               2       0                               0D    100
     194     114                                                00010000D    101
     194       0    -141       1       1                               0D    102
     123     115                                                00010200D    103
     123       0               1       0                               0D    104
     123     116                                                00010200D    105
     123       0               1       0                               0D    106
     123     117                                                00010200D    107
     123       0               1       0                               0D    108
     123     118                                                00010200D    109
     123       0               1       0                               0D    110
     123     119                                                00010200D    111
     123       0               1       0                               0D    112
     123     120                                                00010200D    113
     123       0               1       0                               0D    114
     123     121                                                00010200D    115
     123       0               1       0                               0D    116
     123     122                                                00010200D    117
     123       0               1       0                               0D    118
     123     123                                                00010200D    119
     123       0               1       0                               0D    120
     123     124                                                00010200D    121
     123       0               1       0                               0D    122
     116     125                                                00010000D    123
     116       0               1       0                               0D    124
     116     126                                                00010000D    125
     116       0               1       0                               0D    126
     116     127                                                00010000D    127
     116       0               1       0                               0D    128
     116     128                                                00010000D    129
     116       0               1       0                               0D    130
     116     129                                                00010000D    131
     116       0               1       0                               0D    132
     502     130                                                00010000D    133
     502                       8       1                               0D    134
     504     138                                                00010001D    135
     504                       3       1                               0D    136
     406     141                                                00000000D    137
     406                       1      15                               0D    138
     314     142                                                00000200D    139
     314                       1       0                               0D    140
     314     143                                                00000200D    141
     314                       1       0                               0D    142
406,2,0,10H220013.stp;                                                 1P      1
186,5,1,0,0,1,137;                                                     3P      2
514,7,25,1,27,1,29,1,31,1,33,1,35,1,37,1;                              5P      3
120,9,11,0.,6.28318530717959;                                          7P      4
110,2.24512409513592D-015,-3.4,0.,1.87773005539171D-015,-2.4,0.;       9P      5
110,5.90000000000001,-6.8,-7.2254161149694D-016,                      11P      6
5.90000000000001,3.10862446895044D-015,-7.2254161149694D-016;         11P      7
110,5.90000000000001,-6.8,-7.2254161149694D-016,                      13P      8
5.90000000000001,3.33066907387547D-015,-7.2254161149694D-016;         13P      9
128,2,8,2,2,0,1,0,0,0,1.2821168853069,1.2821168853069,                15P     10
1.2821168853069,1.57059256806657,1.57059256806657,                    15P     11
1.57059256806657,-3.14159265358979,-3.14159265358979,                 15P     12
-3.14159265358979,-1.5707963267949,-1.5707963267949,0.,0.,            15P     13
1.5707963267949,1.5707963267949,3.14159265358979,                     15P     14
3.14159265358979,3.14159265358979,1.,0.98961574461762,1.,             15P     15
0.707106781186548,0.699764003788094,0.707106781186548,1.,             15P     16
0.98961574461762,1.,0.707106781186548,0.699764003788094,              15P     17
0.707106781186548,1.,0.98961574461762,1.,0.707106781186548,           15P     18
0.699764003788094,0.707106781186548,1.,0.98961574461762,1.,           15P     19
0.707106781186548,0.699764003788094,0.707106781186548,1.,             15P     20
0.98961574461762,1.,-1.88750913263905D-007,1.20000000000459,          15P     21
9.26589532253833D-007,-1.88745319486408D-007,1.19914187270093,        15P     22
-4.21214760589862,-1.80929834517436D-007,-9.48761247343555D-008,      15P     23
-8.25000031962166,-1.88750912812207D-007,1.20000000000459,            15P     24
9.26589532253833D-007,-4.21214872120601,1.19914184524799,             15P     25
-4.21214760589862,-8.25000138875584,-1.48646032912157D-007,           15P     26
-8.25000031962166,-1.88750912812207D-007,1.20000000000458,            15P     27
9.26589531802135D-007,-4.21214872120602,1.19914171051127,             15P     28
9.26562077142218D-007,-8.25000138875584,-4.12544149604631D-007,       15P     29
8.88204344189179D-007,-1.88750912812207D-007,1.20000000000458,        15P     30
9.26589531350438D-007,-4.21214872120601,1.19914157577456,             15P     31
4.21214945902277,-8.25000138875584,-6.76442266297104D-007,            15P     32
8.25000209603035,-1.88750913263905D-007,1.20000000000458,             15P     33
9.26589531350438D-007,-1.88745319486408D-007,1.1991416032275,         15P     34
4.21214945902277,-1.80929834517436D-007,-6.22672358119303D-007,       15P     35
8.25000209603035,-1.88750913715602D-007,1.20000000000458,             15P     36
9.26589531350438D-007,4.21214834371538,1.19914163068045,              15P     37
4.21214945902277,8.25000102689617,-5.68902449941501D-007,             15P     38
8.25000209603035,-1.88750913715602D-007,1.20000000000458,             15P     39
9.26589531802135D-007,4.21214834371538,1.19914176541716,              15P     40
9.26562078898528D-007,8.25000102689618,-3.05004333249028D-007,        15P     41
8.88204347629124D-007,-1.88750913715602D-007,1.20000000000459,        15P     42
9.26589532253833D-007,4.21214834371538,1.19914190015388,              15P     43
-4.21214760589861,8.25000102689617,-4.11062165565541D-008,            15P     44
-8.25000031962165,-1.88750913263905D-007,1.20000000000459,            15P     45
9.26589532253833D-007,-1.88745319486408D-007,1.19914187270093,        15P     46
-4.21214760589862,-1.80929834517436D-007,-9.48761247343555D-008,      15P     47
-8.25000031962166,1.2821168853069,1.57059256806657,                   15P     48
-3.14159265358979,3.14159265358979;                                   15P     49
192,127,111,6.75000000000001,113;                                     17P     50
190,125,107,109;                                                      19P     51
190,129,115,117;                                                      21P     52
190,131,119,121;                                                      23P     53
510,101,2,1,39,41;                                                    25P     54
510,19,2,1,43,45;                                                     27P     55
510,17,2,1,47,49;                                                     29P     56
510,21,2,1,51,53;                                                     31P     57
510,15,1,1,55;                                                        33P     58
510,23,1,1,57;                                                        35P     59
510,7,1,1,59;                                                         37P     60
508,1,0,135,1,1,0;                                                    39P     61
508,1,0,135,2,1,0;                                                    41P     62
508,1,0,135,1,0,0;                                                    43P     63
508,2,0,135,3,1,0,0,135,4,1,0;                                        45P     64
508,1,0,135,5,0,0;                                                    47P     65
508,1,0,135,2,0,0;                                                    49P     66
508,2,0,135,6,0,0,0,135,7,0,0;                                        51P     67
508,1,0,135,5,1,0;                                                    53P     68
508,4,0,135,6,1,0,0,135,8,1,0,0,135,8,0,0,0,135,7,1,0;                55P     69
508,2,0,135,9,0,0,0,135,10,0,0;                                       57P     70
508,6,0,135,3,0,0,0,135,4,0,0,0,135,11,1,0,0,135,10,1,0,0,135,9,      59P     71
1,0,0,135,11,0,0;                                                     59P     72
124,1.,-0.,-3.67394039744206D-016,3.49426383026623D-015,              61P     73
3.67394039744206D-016,0.,1.,-6.8,0.,-1.,0.,0.;                        61P     74
124,1.,-0.,3.67394039744206D-016,2.75947575077781D-015,               63P     75
3.67394039744206D-016,0.,-1.,-4.8,0.,1.,0.,0.;                        63P     76
124,-1.,0.,-3.67394039744206D-016,3.49426383026623D-015,              65P     77
-3.67394039744206D-016,0.,1.,-6.8,0.,1.,0.,0.;                        65P     78
124,-1.,0.,-3.67394039744206D-016,3.49426383026623D-015,              67P     79
-3.67394039744206D-016,0.,1.,-6.8,0.,1.,0.,0.;                        67P     80
124,-1.,0.,-3.67394039744206D-016,9.95984360005625D-016,              69P     81
-3.67394039744206D-016,0.,1.,2.22044604925031D-015,0.,1.,0.,0.;       69P     82
124,-1.,0.,-3.67394039744206D-016,9.95984360005624D-016,              71P     83
-3.67394039744206D-016,0.,1.,3.33066907387547D-015,0.,1.,0.,0.;       71P     84
124,-1.,0.,-3.67394039744206D-016,9.95984360005624D-016,              73P     85
-3.67394039744206D-016,0.,1.,3.33066907387547D-015,0.,1.,0.,0.;       73P     86
124,-1.22464679260485D-016,-6.51756367342043D-009,1.,                 75P     87
2.58429317776264D-010,3.19876452968868D-008,0.999999999999999,        75P     88
6.51756367342043D-009,-27.7999993944005,-0.999999999999999,           75P     89
3.19876452968868D-008,8.60168357247627D-017,0.00590900202758148;      75P     90
124,-1.,0.,-3.67394039744206D-016,9.95984360005625D-016,              77P     91
-3.67394039744206D-016,0.,1.,1.11022302462516D-015,0.,1.,0.,0.;       77P     92
124,-1.,0.,-3.67394039744206D-016,9.95984360005625D-016,              79P     93
-3.67394039744206D-016,0.,1.,1.11022302462516D-015,0.,1.,0.,0.;       79P     94
100,0.,0.,0.,-6.0220595314676,-7.37489592948661D-016,                 81P     95
-6.0220595314676,-7.37489592948661D-016;                              81P     96
100,0.,0.,0.,-6.75000000000001,-8.26636589424465D-016,                83P     97
-6.75000000000001,-8.26636589424465D-016;                             83P     98
100,0.,0.,0.,5.90000000000001,0.,-5.90000000000001,                   85P     99
-7.2254161149694D-016;                                                85P    100
100,0.,0.,0.,-5.90000000000001,-7.2254161149694D-016,                 87P    101
5.90000000000001,0.;                                                  87P    102
100,0.,0.,0.,6.75000000000001,0.,6.75000000000001,0.;                 89P    103
100,0.,0.,0.,8.25000000000001,0.,1.80929836523755D-007,               91P    104
-8.25000031962166;                                                    91P    105
100,0.,0.,0.,1.80929836523755D-007,-8.25000031962166,                 93P    106
8.25000000000001,0.;                                                  93P    107
100,0.,0.,0.,8.25591021090575,27.7999990354373,                       95P    108
0.00590992966927572,28.9999993942115;                                 95P    109
100,0.,0.,0.,5.90000000000001,0.,-5.90000000000001,                   97P    110
-7.2254161149694D-016;                                                97P    111
100,0.,0.,0.,-5.90000000000001,-7.2254161149694D-016,                 99P    112
5.90000000000001,0.;                                                  99P    113
194,123,103,6.38602976573381,20.,105;                                101P    114
123,-3.67394039744206D-016,1.,0.;                                    103P    115
123,1.,3.67394039744206D-016,0.;                                     105P    116
123,3.67394039744206D-016,-1.,0.;                                    107P    117
123,0.,0.,-1.;                                                       109P    118
123,-3.67394039744206D-016,1.,0.;                                    111P    119
123,-1.,-3.67394039744206D-016,0.;                                   113P    120
123,3.67394039744206D-016,-1.,0.;                                    115P    121
123,0.,0.,-1.;                                                       117P    122
123,3.67394039744206D-016,-1.,0.;                                    119P    123
123,0.,0.,-1.;                                                       121P    124
116,3.12686979052202D-015,-5.8,0.,0;                                 123P    125
116,-6.32500000000001,-6.8,0.,0;                                     125P    126
116,2.24512409513592D-015,-3.4,0.,0;                                 127P    127
116,-7.50000000000001,0.,0.,0;                                       129P    128
116,-2.95000000000001,5.55111512312578D-016,0.,0;                    131P    129
502,10,-6.0220595314676,-6.8,7.37489592948661D-016,                  133P    130
-6.75000000000001,-4.8,-8.26636589424465D-016,-5.90000000000001,     133P    131
-6.8,0.,5.90000000000001,-6.8,-7.2254161149694D-016,                 133P    132
-6.75000000000001,0.,0.,-8.25000000000001,0.,0.,                     133P    133
-1.8092983552777D-007,-9.48761336161397D-008,-8.25000031962166,      133P    134
5.55111512312578D-016,1.2,0.,-5.90000000000001,                      133P    135
-1.11022302462516D-015,0.,5.90000000000001,                          133P    136
3.33066907387547D-015,-7.2254161149694D-016;                         133P    137
504,11,81,133,1,133,1,83,133,2,133,2,85,133,3,133,4,87,133,4,        135P    138
133,3,89,133,5,133,5,91,133,6,133,7,93,133,7,133,6,95,133,7,133,     135P    139
8,97,133,9,133,10,99,133,10,133,9,13,133,4,133,10;                   135P    140
406,1,8HTěleso1;                                                    137P    141
314,74.9019607843137,74.9019607843137,74.9019607843137,;             139P    142
314,16.078431372549,16.078431372549,16.078431372549,;                141P    143
S      1G      2D    142P    143                                        T      1
