ISO-10303-21;
HEADER;
/* Generated by software containing ST-Developer
 * from STEP Tools, Inc. (www.steptools.com) 
 */

FILE_DESCRIPTION(
/* description */ ('Z\X\E1slepka otvoru'),
/* implementation_level */ '2;1');

FILE_NAME(
/* name */ 'D:\\Work\\Zakazky\\2013\\AlutecKK\\stp\\220013.stp',
/* time_stamp */ '2013-12-08T11:18:46+01:00',
/* author */ ('PC'),
/* organization */ (''),
/* preprocessor_version */ 'ST-DEVELOPER v15.2',
/* originating_system */ 'Autodesk Inventor 2014',
/* authorisation */ '');

FILE_SCHEMA (('AUTOMOTIVE_DESIGN { 1 0 10303 214 3 1 1 }'));
ENDSEC;

DATA;
#10=SHAPE_REPRESENTATION_RELATIONSHIP('SRR','None',#197,#11);
#11=ADVANCED_BREP_SHAPE_REPRESENTATION($,(#92),#188);
#12=STYLED_ITEM($,(#205),#92);
#13=(
BOUNDED_CURVE()
B_SPLINE_CURVE(2,(#180,#181,#182),.UNSPECIFIED.,.F.,.F.)
B_SPLINE_CURVE_WITH_KNOTS((3,3),(-1.57059256805746,-1.28211692878304),
 .UNSPECIFIED.)
CURVE()
GEOMETRIC_REPRESENTATION_ITEM()
RATIONAL_B_SPLINE_CURVE((1.,0.989615747742905,1.))
REPRESENTATION_ITEM($)
);
#14=(
BOUNDED_SURFACE()
B_SPLINE_SURFACE(2,2,((#152,#153,#154,#155,#156,#157,#158,#159,#160),(#161,
#162,#163,#164,#165,#166,#167,#168,#169),(#170,#171,#172,#173,#174,#175,
#176,#177,#178)),.UNSPECIFIED.,.F.,.T.,.F.)
B_SPLINE_SURFACE_WITH_KNOTS((3,3),(3,2,2,2,3),(1.28211692878304,1.57059256805746),
(-3.14159265358979,-1.5707963267949,0.,1.5707963267949,3.14159265358979),
 .UNSPECIFIED.)
GEOMETRIC_REPRESENTATION_ITEM()
RATIONAL_B_SPLINE_SURFACE(((1.,0.707106781186548,1.,0.707106781186548,1.,
0.707106781186548,1.,0.707106781186548,1.),(0.989615747742905,0.699764005998004,
0.989615747742905,0.699764005998004,0.989615747742905,0.699764005998004,
0.989615747742905,0.699764005998004,0.989615747742905),(1.,0.707106781186548,
1.,0.707106781186548,1.,0.707106781186548,1.,0.707106781186548,1.)))
REPRESENTATION_ITEM($)
SURFACE()
);
#15=CYLINDRICAL_SURFACE($,#99,6.75000000000001);
#16=CYLINDRICAL_SURFACE($,#106,5.90000000000001);
#17=PLANE($,#97);
#18=PLANE($,#101);
#19=PLANE($,#104);
#20=FACE_BOUND($,#33,.T.);
#21=FACE_BOUND($,#34,.T.);
#22=FACE_BOUND($,#35,.T.);
#23=FACE_BOUND($,#37,.T.);
#24=FACE_BOUND($,#39,.T.);
#25=FACE_BOUND($,#43,.T.);
#26=FACE_OUTER_BOUND($,#32,.T.);
#27=FACE_OUTER_BOUND($,#36,.T.);
#28=FACE_OUTER_BOUND($,#38,.T.);
#29=FACE_OUTER_BOUND($,#40,.T.);
#30=FACE_OUTER_BOUND($,#41,.T.);
#31=FACE_OUTER_BOUND($,#42,.T.);
#32=EDGE_LOOP($,(#67));
#33=EDGE_LOOP($,(#68));
#34=EDGE_LOOP($,(#69));
#35=EDGE_LOOP($,(#70));
#36=EDGE_LOOP($,(#71));
#37=EDGE_LOOP($,(#72));
#38=EDGE_LOOP($,(#73,#74));
#39=EDGE_LOOP($,(#75));
#40=EDGE_LOOP($,(#76,#77,#78,#79));
#41=EDGE_LOOP($,(#80));
#42=EDGE_LOOP($,(#81));
#43=EDGE_LOOP($,(#82));
#44=CIRCLE($,#95,6.0220595314676);
#45=CIRCLE($,#96,6.75000000000001);
#46=CIRCLE($,#98,5.90000000000001);
#47=CIRCLE($,#100,6.75000000000001);
#48=CIRCLE($,#102,8.25000000000001);
#49=CIRCLE($,#103,8.25000000000001);
#50=CIRCLE($,#105,5.90000000000001);
#51=VERTEX_POINT($,#137);
#52=VERTEX_POINT($,#139);
#53=VERTEX_POINT($,#142);
#54=VERTEX_POINT($,#145);
#55=VERTEX_POINT($,#148);
#56=VERTEX_POINT($,#149);
#57=VERTEX_POINT($,#179);
#58=VERTEX_POINT($,#184);
#59=EDGE_CURVE($,#51,#51,#44,.T.);
#60=EDGE_CURVE($,#52,#52,#45,.T.);
#61=EDGE_CURVE($,#53,#53,#46,.T.);
#62=EDGE_CURVE($,#54,#54,#47,.T.);
#63=EDGE_CURVE($,#55,#56,#48,.T.);
#64=EDGE_CURVE($,#56,#55,#49,.T.);
#65=EDGE_CURVE($,#57,#56,#13,.T.);
#66=EDGE_CURVE($,#58,#58,#50,.T.);
#67=ORIENTED_EDGE($,*,*,#59,.T.);
#68=ORIENTED_EDGE($,*,*,#60,.T.);
#69=ORIENTED_EDGE($,*,*,#61,.T.);
#70=ORIENTED_EDGE($,*,*,#59,.F.);
#71=ORIENTED_EDGE($,*,*,#62,.F.);
#72=ORIENTED_EDGE($,*,*,#60,.F.);
#73=ORIENTED_EDGE($,*,*,#63,.F.);
#74=ORIENTED_EDGE($,*,*,#64,.F.);
#75=ORIENTED_EDGE($,*,*,#62,.T.);
#76=ORIENTED_EDGE($,*,*,#65,.T.);
#77=ORIENTED_EDGE($,*,*,#64,.T.);
#78=ORIENTED_EDGE($,*,*,#63,.T.);
#79=ORIENTED_EDGE($,*,*,#65,.F.);
#80=ORIENTED_EDGE($,*,*,#66,.F.);
#81=ORIENTED_EDGE($,*,*,#61,.F.);
#82=ORIENTED_EDGE($,*,*,#66,.T.);
#83=CONICAL_SURFACE($,#94,6.38602976573381,20.);
#84=ADVANCED_FACE($,(#26,#20),#83,.T.);
#85=ADVANCED_FACE($,(#21,#22),#17,.T.);
#86=ADVANCED_FACE($,(#27,#23),#15,.T.);
#87=ADVANCED_FACE($,(#28,#24),#18,.T.);
#88=ADVANCED_FACE($,(#29),#14,.F.);
#89=ADVANCED_FACE($,(#30),#19,.T.);
#90=ADVANCED_FACE($,(#31,#25),#16,.F.);
#91=CLOSED_SHELL($,(#84,#85,#86,#87,#88,#89,#90));
#92=MANIFOLD_SOLID_BREP('T\X2\011B\X0\leso1',#91);
#93=AXIS2_PLACEMENT_3D('placement',#135,#107,#108);
#94=AXIS2_PLACEMENT_3D($,#136,#109,#110);
#95=AXIS2_PLACEMENT_3D($,#138,#111,#112);
#96=AXIS2_PLACEMENT_3D($,#140,#113,#114);
#97=AXIS2_PLACEMENT_3D($,#141,#115,#116);
#98=AXIS2_PLACEMENT_3D($,#143,#117,#118);
#99=AXIS2_PLACEMENT_3D($,#144,#119,#120);
#100=AXIS2_PLACEMENT_3D($,#146,#121,#122);
#101=AXIS2_PLACEMENT_3D($,#147,#123,#124);
#102=AXIS2_PLACEMENT_3D($,#150,#125,#126);
#103=AXIS2_PLACEMENT_3D($,#151,#127,#128);
#104=AXIS2_PLACEMENT_3D($,#183,#129,#130);
#105=AXIS2_PLACEMENT_3D($,#185,#131,#132);
#106=AXIS2_PLACEMENT_3D($,#186,#133,#134);
#107=DIRECTION('axis',(0.,0.,1.));
#108=DIRECTION('refdir',(1.,0.,0.));
#109=DIRECTION('center_axis',(-3.67394039744206E-016,1.,0.));
#110=DIRECTION('ref_axis',(1.,3.47079092230548E-016,0.));
#111=DIRECTION('center_axis',(-3.67394039744206E-016,1.,0.));
#112=DIRECTION('ref_axis',(1.,3.67394039744206E-016,0.));
#113=DIRECTION('center_axis',(3.67394039744206E-016,-1.,0.));
#114=DIRECTION('ref_axis',(1.,3.28954970259305E-016,0.));
#115=DIRECTION('center_axis',(3.67394039744206E-016,-1.,0.));
#116=DIRECTION('ref_axis',(0.,0.,-1.));
#117=DIRECTION('center_axis',(-3.67394039744206E-016,1.,0.));
#118=DIRECTION('ref_axis',(-1.,-3.28954970259305E-016,0.));
#119=DIRECTION('center_axis',(-3.67394039744206E-016,1.,0.));
#120=DIRECTION('ref_axis',(-1.,-3.28954970259305E-016,0.));
#121=DIRECTION('center_axis',(-3.67394039744206E-016,1.,0.));
#122=DIRECTION('ref_axis',(-1.,-3.28954970259305E-016,0.));
#123=DIRECTION('center_axis',(3.67394039744206E-016,-1.,0.));
#124=DIRECTION('ref_axis',(0.,0.,-1.));
#125=DIRECTION('center_axis',(-3.67394039744206E-016,1.,0.));
#126=DIRECTION('ref_axis',(-1.,-3.28954970259305E-016,0.));
#127=DIRECTION('center_axis',(-3.67394039744206E-016,1.,0.));
#128=DIRECTION('ref_axis',(-1.,-3.28954970259305E-016,0.));
#129=DIRECTION('center_axis',(3.67394039744206E-016,-1.,0.));
#130=DIRECTION('ref_axis',(0.,0.,-1.));
#131=DIRECTION('center_axis',(-3.67394039744206E-016,1.,0.));
#132=DIRECTION('ref_axis',(-1.,-3.28954970259305E-016,0.));
#133=DIRECTION('center_axis',(-3.67394039744206E-016,1.,0.));
#134=DIRECTION('ref_axis',(-1.,-3.28954970259305E-016,0.));
#135=CARTESIAN_POINT('',(0.,0.,0.));
#136=CARTESIAN_POINT('Origin',(3.12686979052202E-015,-5.8,0.));
#137=CARTESIAN_POINT('',(-6.0220595314676,-6.8,7.37489592948661E-016));
#138=CARTESIAN_POINT('Origin',(3.49426383026623E-015,-6.8,0.));
#139=CARTESIAN_POINT('',(-6.75000000000001,-4.8,-8.26636589424465E-016));
#140=CARTESIAN_POINT('Origin',(2.75947575077781E-015,-4.8,0.));
#141=CARTESIAN_POINT('Origin',(-6.32500000000001,-6.8,0.));
#142=CARTESIAN_POINT('',(-5.90000000000001,-6.8,0.));
#143=CARTESIAN_POINT('Origin',(3.49426383026623E-015,-6.8,0.));
#144=CARTESIAN_POINT('Origin',(2.24512409513592E-015,-3.4,0.));
#145=CARTESIAN_POINT('',(-6.75000000000001,0.,0.));
#146=CARTESIAN_POINT('Origin',(9.95984360005625E-016,2.22044604925031E-015,
0.));
#147=CARTESIAN_POINT('Origin',(-7.50000000000001,0.,0.));
#148=CARTESIAN_POINT('',(-8.25000000000001,0.,0.));
#149=CARTESIAN_POINT('',(9.96012177611951E-016,-4.44089209850063E-015,-8.25000000000001));
#150=CARTESIAN_POINT('Origin',(9.95984360005624E-016,3.33066907387547E-015,
0.));
#151=CARTESIAN_POINT('Origin',(9.95984360005624E-016,3.33066907387547E-015,
0.));
#152=CARTESIAN_POINT('Ctrl Pts',(9.96012177611951E-016,-4.44089209850063E-015,
-8.25000000000001));
#153=CARTESIAN_POINT('Ctrl Pts',(-8.25000000000001,-7.47189292639033E-015,
-8.25000000000001));
#154=CARTESIAN_POINT('Ctrl Pts',(-8.25000000000001,-7.47189292639033E-015,
0.));
#155=CARTESIAN_POINT('Ctrl Pts',(-8.25000000000001,-7.47189292639033E-015,
8.25000000000001));
#156=CARTESIAN_POINT('Ctrl Pts',(9.96012177611951E-016,-4.44089209850063E-015,
8.25000000000001));
#157=CARTESIAN_POINT('Ctrl Pts',(8.25000000000001,-1.40989127061092E-015,
8.25000000000001));
#158=CARTESIAN_POINT('Ctrl Pts',(8.25000000000001,-1.40989127061092E-015,
0.));
#159=CARTESIAN_POINT('Ctrl Pts',(8.25000000000001,-1.40989127061092E-015,
-8.25000000000001));
#160=CARTESIAN_POINT('Ctrl Pts',(9.96012177611951E-016,-4.44089209850063E-015,
-8.25000000000001));
#161=CARTESIAN_POINT('Ctrl Pts',(5.55454650243013E-016,1.19914173805234,
-4.21214788917126));
#162=CARTESIAN_POINT('Ctrl Pts',(-4.21214788917126,1.19914173805234,-4.21214788917126));
#163=CARTESIAN_POINT('Ctrl Pts',(-4.21214788917126,1.19914173805234,-1.21577157762838E-030));
#164=CARTESIAN_POINT('Ctrl Pts',(-4.21214788917126,1.19914173805234,4.21214788917126));
#165=CARTESIAN_POINT('Ctrl Pts',(5.5545465024301E-016,1.19914173805234,
4.21214788917126));
#166=CARTESIAN_POINT('Ctrl Pts',(4.21214788917126,1.19914173805235,4.21214788917126));
#167=CARTESIAN_POINT('Ctrl Pts',(4.21214788917126,1.19914173805234,1.21577157762838E-030));
#168=CARTESIAN_POINT('Ctrl Pts',(4.21214788917126,1.19914173805234,-4.21214788917126));
#169=CARTESIAN_POINT('Ctrl Pts',(5.55454650243013E-016,1.19914173805234,
-4.21214788917126));
#170=CARTESIAN_POINT('Ctrl Pts',(5.55139329918903E-016,1.2,-1.54715650013681E-015));
#171=CARTESIAN_POINT('Ctrl Pts',(-9.92017170217911E-016,1.2,-1.54715650013681E-015));
#172=CARTESIAN_POINT('Ctrl Pts',(-9.92017170217911E-016,1.2,0.));
#173=CARTESIAN_POINT('Ctrl Pts',(-9.92017170217911E-016,1.2,1.54715650013681E-015));
#174=CARTESIAN_POINT('Ctrl Pts',(5.55139329918903E-016,1.2,1.54715650013681E-015));
#175=CARTESIAN_POINT('Ctrl Pts',(2.10229583005572E-015,1.2,1.54715650013681E-015));
#176=CARTESIAN_POINT('Ctrl Pts',(2.10229583005572E-015,1.2,0.));
#177=CARTESIAN_POINT('Ctrl Pts',(2.10229583005572E-015,1.2,-1.54715650013681E-015));
#178=CARTESIAN_POINT('Ctrl Pts',(5.55139329918903E-016,1.2,-1.54715650013681E-015));
#179=CARTESIAN_POINT('',(5.55111512312578E-016,1.2,0.));
#180=CARTESIAN_POINT('Ctrl Pts',(5.55139329918903E-016,1.2,-1.54715650013681E-015));
#181=CARTESIAN_POINT('Ctrl Pts',(5.55454650243013E-016,1.19914173805234,
-4.21214788917126));
#182=CARTESIAN_POINT('Ctrl Pts',(9.96012177611951E-016,-4.44089209850063E-015,
-8.25000000000001));
#183=CARTESIAN_POINT('Origin',(-2.95000000000001,5.55111512312578E-016,
0.));
#184=CARTESIAN_POINT('',(-5.90000000000001,-1.11022302462516E-015,0.));
#185=CARTESIAN_POINT('Origin',(9.95984360005625E-016,1.11022302462516E-015,
0.));
#186=CARTESIAN_POINT('Origin',(2.24512409513592E-015,-3.4,0.));
#187=UNCERTAINTY_MEASURE_WITH_UNIT(LENGTH_MEASURE(0.01),#189,
'DISTANCE_ACCURACY_VALUE',
'Maximum model space distance between geometric entities at asserted c
onnectivities');
#188=(
GEOMETRIC_REPRESENTATION_CONTEXT(3)
GLOBAL_UNCERTAINTY_ASSIGNED_CONTEXT((#187))
GLOBAL_UNIT_ASSIGNED_CONTEXT((#189,#192,#190))
REPRESENTATION_CONTEXT('','3D')
);
#189=(
LENGTH_UNIT()
NAMED_UNIT(*)
SI_UNIT(.MILLI.,.METRE.)
);
#190=(
NAMED_UNIT(*)
SI_UNIT($,.STERADIAN.)
SOLID_ANGLE_UNIT()
);
#191=DIMENSIONAL_EXPONENTS(0.,0.,0.,0.,0.,0.,0.);
#192=(
CONVERSION_BASED_UNIT('degree',#194)
NAMED_UNIT(#191)
PLANE_ANGLE_UNIT()
);
#193=(
NAMED_UNIT(*)
PLANE_ANGLE_UNIT()
SI_UNIT($,.RADIAN.)
);
#194=PLANE_ANGLE_MEASURE_WITH_UNIT(PLANE_ANGLE_MEASURE(0.01745329252),#193);
#195=SHAPE_DEFINITION_REPRESENTATION(#196,#197);
#196=PRODUCT_DEFINITION_SHAPE('',$,#199);
#197=SHAPE_REPRESENTATION('',(#93),#188);
#198=PRODUCT_DEFINITION_CONTEXT('3D Mechanical Parts',#202,'design');
#199=PRODUCT_DEFINITION('220013','220013',#200,#198);
#200=PRODUCT_DEFINITION_FORMATION('',$,#204);
#201=APPLICATION_PROTOCOL_DEFINITION('international standard',
'automotive_design',2009,#202);
#202=APPLICATION_CONTEXT(
'Core Data for Automotive Mechanical Design Process');
#203=PRODUCT_CONTEXT('3D Mechanical Parts',#202,'mechanical');
#204=PRODUCT('220013','220013',$,(#203));
#205=PRESENTATION_STYLE_ASSIGNMENT((#206));
#206=SURFACE_STYLE_USAGE(.BOTH.,#207);
#207=SURFACE_SIDE_STYLE($,(#208));
#208=SURFACE_STYLE_FILL_AREA(#209);
#209=FILL_AREA_STYLE($,(#210));
#210=FILL_AREA_STYLE_COLOUR($,#211);
#211=COLOUR_RGB('',0.16078431372549,0.16078431372549,0.16078431372549);
ENDSEC;
END-ISO-10303-21;
