ISO-10303-21;
HEADER;
/* Generated by software containing ST-Developer
 * from STEP Tools, Inc. (www.steptools.com) 
 */

FILE_DESCRIPTION(
/* description */ ('Profil uzav\X\EDrac\X\ED  \X2\010D\X0\ern\X\FD'),
/* implementation_level */ '2;1');

FILE_NAME(
/* name */ 'C:\\Vault_pracovn\X\ED\\Zak\X\E1zky\\Kal\X\E1b_pokus\\2308
15.stp',
/* time_stamp */ '2014-08-19T09:17:29+02:00',
/* author */ ('jank'),
/* organization */ (''),
/* preprocessor_version */ 'ST-DEVELOPER v15.2',
/* originating_system */ 'Autodesk Inventor 2014',
/* authorisation */ '');

FILE_SCHEMA (('CONFIG_CONTROL_DESIGN'));
ENDSEC;

DATA;
#10=SHAPE_REPRESENTATION_RELATIONSHIP('SRR','None',#647,#11);
#11=ADVANCED_BREP_SHAPE_REPRESENTATION($,(#392),#638);
#12=STYLED_ITEM($,(#655),#392);
#13=CIRCLE($,#400,0.50000036112227);
#14=CIRCLE($,#401,0.50000036112227);
#15=CIRCLE($,#406,0.50000036112227);
#16=CIRCLE($,#407,0.50000036112227);
#17=CIRCLE($,#414,0.25);
#18=CIRCLE($,#415,0.25);
#19=CIRCLE($,#418,0.25);
#20=CIRCLE($,#419,0.25);
#21=CYLINDRICAL_SURFACE($,#399,0.50000036112227);
#22=CYLINDRICAL_SURFACE($,#405,0.50000036112227);
#23=CYLINDRICAL_SURFACE($,#413,0.25);
#24=CYLINDRICAL_SURFACE($,#417,0.25);
#25=FACE_OUTER_BOUND($,#45,.T.);
#26=FACE_OUTER_BOUND($,#46,.T.);
#27=FACE_OUTER_BOUND($,#47,.T.);
#28=FACE_OUTER_BOUND($,#48,.T.);
#29=FACE_OUTER_BOUND($,#49,.T.);
#30=FACE_OUTER_BOUND($,#50,.T.);
#31=FACE_OUTER_BOUND($,#51,.T.);
#32=FACE_OUTER_BOUND($,#52,.T.);
#33=FACE_OUTER_BOUND($,#53,.T.);
#34=FACE_OUTER_BOUND($,#54,.T.);
#35=FACE_OUTER_BOUND($,#55,.T.);
#36=FACE_OUTER_BOUND($,#56,.T.);
#37=FACE_OUTER_BOUND($,#57,.T.);
#38=FACE_OUTER_BOUND($,#58,.T.);
#39=FACE_OUTER_BOUND($,#59,.T.);
#40=FACE_OUTER_BOUND($,#60,.T.);
#41=FACE_OUTER_BOUND($,#61,.T.);
#42=FACE_OUTER_BOUND($,#62,.T.);
#43=FACE_OUTER_BOUND($,#63,.T.);
#44=FACE_OUTER_BOUND($,#64,.T.);
#45=EDGE_LOOP($,(#247,#248,#249,#250));
#46=EDGE_LOOP($,(#251,#252,#253,#254));
#47=EDGE_LOOP($,(#255,#256,#257,#258));
#48=EDGE_LOOP($,(#259,#260,#261,#262));
#49=EDGE_LOOP($,(#263,#264,#265,#266));
#50=EDGE_LOOP($,(#267,#268,#269,#270));
#51=EDGE_LOOP($,(#271,#272,#273,#274));
#52=EDGE_LOOP($,(#275,#276,#277,#278));
#53=EDGE_LOOP($,(#279,#280,#281,#282));
#54=EDGE_LOOP($,(#283,#284,#285,#286));
#55=EDGE_LOOP($,(#287,#288,#289,#290));
#56=EDGE_LOOP($,(#291,#292,#293,#294));
#57=EDGE_LOOP($,(#295,#296,#297,#298));
#58=EDGE_LOOP($,(#299,#300,#301,#302));
#59=EDGE_LOOP($,(#303,#304,#305,#306));
#60=EDGE_LOOP($,(#307,#308,#309,#310));
#61=EDGE_LOOP($,(#311,#312,#313,#314));
#62=EDGE_LOOP($,(#315,#316,#317,#318));
#63=EDGE_LOOP($,(#319,#320,#321,#322,#323,#324,#325,#326,#327,#328,#329,
#330,#331,#332,#333,#334,#335,#336));
#64=EDGE_LOOP($,(#337,#338,#339,#340,#341,#342,#343,#344,#345,#346,#347,
#348,#349,#350,#351,#352,#353,#354));
#65=LINE($,#530,#111);
#66=LINE($,#532,#112);
#67=LINE($,#534,#113);
#68=LINE($,#535,#114);
#69=LINE($,#538,#115);
#70=LINE($,#540,#116);
#71=LINE($,#541,#117);
#72=LINE($,#544,#118);
#73=LINE($,#546,#119);
#74=LINE($,#547,#120);
#75=LINE($,#550,#121);
#76=LINE($,#552,#122);
#77=LINE($,#553,#123);
#78=LINE($,#556,#124);
#79=LINE($,#558,#125);
#80=LINE($,#559,#126);
#81=LINE($,#564,#127);
#82=LINE($,#568,#128);
#83=LINE($,#570,#129);
#84=LINE($,#571,#130);
#85=LINE($,#574,#131);
#86=LINE($,#576,#132);
#87=LINE($,#577,#133);
#88=LINE($,#580,#134);
#89=LINE($,#582,#135);
#90=LINE($,#583,#136);
#91=LINE($,#588,#137);
#92=LINE($,#592,#138);
#93=LINE($,#594,#139);
#94=LINE($,#595,#140);
#95=LINE($,#598,#141);
#96=LINE($,#600,#142);
#97=LINE($,#601,#143);
#98=LINE($,#604,#144);
#99=LINE($,#606,#145);
#100=LINE($,#607,#146);
#101=LINE($,#610,#147);
#102=LINE($,#612,#148);
#103=LINE($,#613,#149);
#104=LINE($,#616,#150);
#105=LINE($,#618,#151);
#106=LINE($,#619,#152);
#107=LINE($,#624,#153);
#108=LINE($,#628,#154);
#109=LINE($,#630,#155);
#110=LINE($,#631,#156);
#111=VECTOR($,#426,4.25404832027224);
#112=VECTOR($,#427,100.);
#113=VECTOR($,#428,4.25404832027224);
#114=VECTOR($,#429,100.);
#115=VECTOR($,#432,1.18529766075486);
#116=VECTOR($,#433,100.);
#117=VECTOR($,#434,1.18529766075486);
#118=VECTOR($,#437,4.00034510308695);
#119=VECTOR($,#438,100.);
#120=VECTOR($,#439,4.00034510308695);
#121=VECTOR($,#442,1.17884969507515);
#122=VECTOR($,#443,100.);
#123=VECTOR($,#444,1.17884969507515);
#124=VECTOR($,#447,3.6933022192931);
#125=VECTOR($,#448,100.);
#126=VECTOR($,#449,3.6933022192931);
#127=VECTOR($,#454,100.);
#128=VECTOR($,#459,12.5450701405471);
#129=VECTOR($,#460,100.);
#130=VECTOR($,#461,12.5450701405471);
#131=VECTOR($,#464,5.23895858549109);
#132=VECTOR($,#465,100.);
#133=VECTOR($,#466,5.23895858549109);
#134=VECTOR($,#469,12.5450186392183);
#135=VECTOR($,#470,100.);
#136=VECTOR($,#471,12.5450186392183);
#137=VECTOR($,#476,100.);
#138=VECTOR($,#481,3.69330307265758);
#139=VECTOR($,#482,100.);
#140=VECTOR($,#483,3.69330307265758);
#141=VECTOR($,#486,1.17876624611326);
#142=VECTOR($,#487,100.);
#143=VECTOR($,#488,1.17876624611326);
#144=VECTOR($,#491,4.00034173976974);
#145=VECTOR($,#492,100.);
#146=VECTOR($,#493,4.00034173976974);
#147=VECTOR($,#496,1.18582196855963);
#148=VECTOR($,#497,100.);
#149=VECTOR($,#498,1.18582196855963);
#150=VECTOR($,#501,4.25354417180427);
#151=VECTOR($,#502,100.);
#152=VECTOR($,#503,4.25354417180427);
#153=VECTOR($,#508,100.);
#154=VECTOR($,#513,7.70650822412503);
#155=VECTOR($,#514,100.);
#156=VECTOR($,#515,7.70650822412503);
#157=VERTEX_POINT($,#528);
#158=VERTEX_POINT($,#529);
#159=VERTEX_POINT($,#531);
#160=VERTEX_POINT($,#533);
#161=VERTEX_POINT($,#537);
#162=VERTEX_POINT($,#539);
#163=VERTEX_POINT($,#543);
#164=VERTEX_POINT($,#545);
#165=VERTEX_POINT($,#549);
#166=VERTEX_POINT($,#551);
#167=VERTEX_POINT($,#555);
#168=VERTEX_POINT($,#557);
#169=VERTEX_POINT($,#561);
#170=VERTEX_POINT($,#563);
#171=VERTEX_POINT($,#567);
#172=VERTEX_POINT($,#569);
#173=VERTEX_POINT($,#573);
#174=VERTEX_POINT($,#575);
#175=VERTEX_POINT($,#579);
#176=VERTEX_POINT($,#581);
#177=VERTEX_POINT($,#585);
#178=VERTEX_POINT($,#587);
#179=VERTEX_POINT($,#591);
#180=VERTEX_POINT($,#593);
#181=VERTEX_POINT($,#597);
#182=VERTEX_POINT($,#599);
#183=VERTEX_POINT($,#603);
#184=VERTEX_POINT($,#605);
#185=VERTEX_POINT($,#609);
#186=VERTEX_POINT($,#611);
#187=VERTEX_POINT($,#615);
#188=VERTEX_POINT($,#617);
#189=VERTEX_POINT($,#621);
#190=VERTEX_POINT($,#623);
#191=VERTEX_POINT($,#627);
#192=VERTEX_POINT($,#629);
#193=EDGE_CURVE($,#157,#158,#65,.T.);
#194=EDGE_CURVE($,#159,#158,#66,.T.);
#195=EDGE_CURVE($,#160,#159,#67,.T.);
#196=EDGE_CURVE($,#160,#157,#68,.T.);
#197=EDGE_CURVE($,#158,#161,#69,.T.);
#198=EDGE_CURVE($,#162,#161,#70,.T.);
#199=EDGE_CURVE($,#159,#162,#71,.T.);
#200=EDGE_CURVE($,#161,#163,#72,.T.);
#201=EDGE_CURVE($,#164,#163,#73,.T.);
#202=EDGE_CURVE($,#162,#164,#74,.T.);
#203=EDGE_CURVE($,#163,#165,#75,.T.);
#204=EDGE_CURVE($,#166,#165,#76,.T.);
#205=EDGE_CURVE($,#164,#166,#77,.T.);
#206=EDGE_CURVE($,#165,#167,#78,.T.);
#207=EDGE_CURVE($,#168,#167,#79,.T.);
#208=EDGE_CURVE($,#166,#168,#80,.T.);
#209=EDGE_CURVE($,#167,#169,#13,.T.);
#210=EDGE_CURVE($,#170,#169,#81,.T.);
#211=EDGE_CURVE($,#168,#170,#14,.T.);
#212=EDGE_CURVE($,#169,#171,#82,.T.);
#213=EDGE_CURVE($,#172,#171,#83,.T.);
#214=EDGE_CURVE($,#170,#172,#84,.T.);
#215=EDGE_CURVE($,#171,#173,#85,.T.);
#216=EDGE_CURVE($,#174,#173,#86,.T.);
#217=EDGE_CURVE($,#172,#174,#87,.T.);
#218=EDGE_CURVE($,#173,#175,#88,.T.);
#219=EDGE_CURVE($,#176,#175,#89,.T.);
#220=EDGE_CURVE($,#174,#176,#90,.T.);
#221=EDGE_CURVE($,#175,#177,#15,.T.);
#222=EDGE_CURVE($,#178,#177,#91,.T.);
#223=EDGE_CURVE($,#176,#178,#16,.T.);
#224=EDGE_CURVE($,#177,#179,#92,.T.);
#225=EDGE_CURVE($,#180,#179,#93,.T.);
#226=EDGE_CURVE($,#178,#180,#94,.T.);
#227=EDGE_CURVE($,#179,#181,#95,.T.);
#228=EDGE_CURVE($,#182,#181,#96,.T.);
#229=EDGE_CURVE($,#180,#182,#97,.T.);
#230=EDGE_CURVE($,#181,#183,#98,.T.);
#231=EDGE_CURVE($,#184,#183,#99,.T.);
#232=EDGE_CURVE($,#182,#184,#100,.T.);
#233=EDGE_CURVE($,#183,#185,#101,.T.);
#234=EDGE_CURVE($,#186,#185,#102,.T.);
#235=EDGE_CURVE($,#184,#186,#103,.T.);
#236=EDGE_CURVE($,#185,#187,#104,.T.);
#237=EDGE_CURVE($,#188,#187,#105,.T.);
#238=EDGE_CURVE($,#186,#188,#106,.T.);
#239=EDGE_CURVE($,#187,#189,#17,.T.);
#240=EDGE_CURVE($,#190,#189,#107,.T.);
#241=EDGE_CURVE($,#188,#190,#18,.T.);
#242=EDGE_CURVE($,#189,#191,#108,.T.);
#243=EDGE_CURVE($,#192,#191,#109,.T.);
#244=EDGE_CURVE($,#190,#192,#110,.T.);
#245=EDGE_CURVE($,#191,#157,#19,.T.);
#246=EDGE_CURVE($,#192,#160,#20,.T.);
#247=ORIENTED_EDGE($,*,*,#193,.T.);
#248=ORIENTED_EDGE($,*,*,#194,.F.);
#249=ORIENTED_EDGE($,*,*,#195,.F.);
#250=ORIENTED_EDGE($,*,*,#196,.T.);
#251=ORIENTED_EDGE($,*,*,#197,.T.);
#252=ORIENTED_EDGE($,*,*,#198,.F.);
#253=ORIENTED_EDGE($,*,*,#199,.F.);
#254=ORIENTED_EDGE($,*,*,#194,.T.);
#255=ORIENTED_EDGE($,*,*,#200,.T.);
#256=ORIENTED_EDGE($,*,*,#201,.F.);
#257=ORIENTED_EDGE($,*,*,#202,.F.);
#258=ORIENTED_EDGE($,*,*,#198,.T.);
#259=ORIENTED_EDGE($,*,*,#203,.T.);
#260=ORIENTED_EDGE($,*,*,#204,.F.);
#261=ORIENTED_EDGE($,*,*,#205,.F.);
#262=ORIENTED_EDGE($,*,*,#201,.T.);
#263=ORIENTED_EDGE($,*,*,#206,.T.);
#264=ORIENTED_EDGE($,*,*,#207,.F.);
#265=ORIENTED_EDGE($,*,*,#208,.F.);
#266=ORIENTED_EDGE($,*,*,#204,.T.);
#267=ORIENTED_EDGE($,*,*,#209,.T.);
#268=ORIENTED_EDGE($,*,*,#210,.F.);
#269=ORIENTED_EDGE($,*,*,#211,.F.);
#270=ORIENTED_EDGE($,*,*,#207,.T.);
#271=ORIENTED_EDGE($,*,*,#212,.T.);
#272=ORIENTED_EDGE($,*,*,#213,.F.);
#273=ORIENTED_EDGE($,*,*,#214,.F.);
#274=ORIENTED_EDGE($,*,*,#210,.T.);
#275=ORIENTED_EDGE($,*,*,#215,.T.);
#276=ORIENTED_EDGE($,*,*,#216,.F.);
#277=ORIENTED_EDGE($,*,*,#217,.F.);
#278=ORIENTED_EDGE($,*,*,#213,.T.);
#279=ORIENTED_EDGE($,*,*,#218,.T.);
#280=ORIENTED_EDGE($,*,*,#219,.F.);
#281=ORIENTED_EDGE($,*,*,#220,.F.);
#282=ORIENTED_EDGE($,*,*,#216,.T.);
#283=ORIENTED_EDGE($,*,*,#221,.T.);
#284=ORIENTED_EDGE($,*,*,#222,.F.);
#285=ORIENTED_EDGE($,*,*,#223,.F.);
#286=ORIENTED_EDGE($,*,*,#219,.T.);
#287=ORIENTED_EDGE($,*,*,#224,.T.);
#288=ORIENTED_EDGE($,*,*,#225,.F.);
#289=ORIENTED_EDGE($,*,*,#226,.F.);
#290=ORIENTED_EDGE($,*,*,#222,.T.);
#291=ORIENTED_EDGE($,*,*,#227,.T.);
#292=ORIENTED_EDGE($,*,*,#228,.F.);
#293=ORIENTED_EDGE($,*,*,#229,.F.);
#294=ORIENTED_EDGE($,*,*,#225,.T.);
#295=ORIENTED_EDGE($,*,*,#230,.T.);
#296=ORIENTED_EDGE($,*,*,#231,.F.);
#297=ORIENTED_EDGE($,*,*,#232,.F.);
#298=ORIENTED_EDGE($,*,*,#228,.T.);
#299=ORIENTED_EDGE($,*,*,#233,.T.);
#300=ORIENTED_EDGE($,*,*,#234,.F.);
#301=ORIENTED_EDGE($,*,*,#235,.F.);
#302=ORIENTED_EDGE($,*,*,#231,.T.);
#303=ORIENTED_EDGE($,*,*,#236,.T.);
#304=ORIENTED_EDGE($,*,*,#237,.F.);
#305=ORIENTED_EDGE($,*,*,#238,.F.);
#306=ORIENTED_EDGE($,*,*,#234,.T.);
#307=ORIENTED_EDGE($,*,*,#239,.T.);
#308=ORIENTED_EDGE($,*,*,#240,.F.);
#309=ORIENTED_EDGE($,*,*,#241,.F.);
#310=ORIENTED_EDGE($,*,*,#237,.T.);
#311=ORIENTED_EDGE($,*,*,#242,.T.);
#312=ORIENTED_EDGE($,*,*,#243,.F.);
#313=ORIENTED_EDGE($,*,*,#244,.F.);
#314=ORIENTED_EDGE($,*,*,#240,.T.);
#315=ORIENTED_EDGE($,*,*,#245,.T.);
#316=ORIENTED_EDGE($,*,*,#196,.F.);
#317=ORIENTED_EDGE($,*,*,#246,.F.);
#318=ORIENTED_EDGE($,*,*,#243,.T.);
#319=ORIENTED_EDGE($,*,*,#221,.F.);
#320=ORIENTED_EDGE($,*,*,#218,.F.);
#321=ORIENTED_EDGE($,*,*,#215,.F.);
#322=ORIENTED_EDGE($,*,*,#212,.F.);
#323=ORIENTED_EDGE($,*,*,#209,.F.);
#324=ORIENTED_EDGE($,*,*,#206,.F.);
#325=ORIENTED_EDGE($,*,*,#203,.F.);
#326=ORIENTED_EDGE($,*,*,#200,.F.);
#327=ORIENTED_EDGE($,*,*,#197,.F.);
#328=ORIENTED_EDGE($,*,*,#193,.F.);
#329=ORIENTED_EDGE($,*,*,#245,.F.);
#330=ORIENTED_EDGE($,*,*,#242,.F.);
#331=ORIENTED_EDGE($,*,*,#239,.F.);
#332=ORIENTED_EDGE($,*,*,#236,.F.);
#333=ORIENTED_EDGE($,*,*,#233,.F.);
#334=ORIENTED_EDGE($,*,*,#230,.F.);
#335=ORIENTED_EDGE($,*,*,#227,.F.);
#336=ORIENTED_EDGE($,*,*,#224,.F.);
#337=ORIENTED_EDGE($,*,*,#223,.T.);
#338=ORIENTED_EDGE($,*,*,#226,.T.);
#339=ORIENTED_EDGE($,*,*,#229,.T.);
#340=ORIENTED_EDGE($,*,*,#232,.T.);
#341=ORIENTED_EDGE($,*,*,#235,.T.);
#342=ORIENTED_EDGE($,*,*,#238,.T.);
#343=ORIENTED_EDGE($,*,*,#241,.T.);
#344=ORIENTED_EDGE($,*,*,#244,.T.);
#345=ORIENTED_EDGE($,*,*,#246,.T.);
#346=ORIENTED_EDGE($,*,*,#195,.T.);
#347=ORIENTED_EDGE($,*,*,#199,.T.);
#348=ORIENTED_EDGE($,*,*,#202,.T.);
#349=ORIENTED_EDGE($,*,*,#205,.T.);
#350=ORIENTED_EDGE($,*,*,#208,.T.);
#351=ORIENTED_EDGE($,*,*,#211,.T.);
#352=ORIENTED_EDGE($,*,*,#214,.T.);
#353=ORIENTED_EDGE($,*,*,#217,.T.);
#354=ORIENTED_EDGE($,*,*,#220,.T.);
#355=PLANE($,#394);
#356=PLANE($,#395);
#357=PLANE($,#396);
#358=PLANE($,#397);
#359=PLANE($,#398);
#360=PLANE($,#402);
#361=PLANE($,#403);
#362=PLANE($,#404);
#363=PLANE($,#408);
#364=PLANE($,#409);
#365=PLANE($,#410);
#366=PLANE($,#411);
#367=PLANE($,#412);
#368=PLANE($,#416);
#369=PLANE($,#420);
#370=PLANE($,#421);
#371=ADVANCED_FACE($,(#25),#355,.T.);
#372=ADVANCED_FACE($,(#26),#356,.T.);
#373=ADVANCED_FACE($,(#27),#357,.T.);
#374=ADVANCED_FACE($,(#28),#358,.T.);
#375=ADVANCED_FACE($,(#29),#359,.T.);
#376=ADVANCED_FACE($,(#30),#21,.T.);
#377=ADVANCED_FACE($,(#31),#360,.T.);
#378=ADVANCED_FACE($,(#32),#361,.T.);
#379=ADVANCED_FACE($,(#33),#362,.T.);
#380=ADVANCED_FACE($,(#34),#22,.T.);
#381=ADVANCED_FACE($,(#35),#363,.T.);
#382=ADVANCED_FACE($,(#36),#364,.T.);
#383=ADVANCED_FACE($,(#37),#365,.T.);
#384=ADVANCED_FACE($,(#38),#366,.T.);
#385=ADVANCED_FACE($,(#39),#367,.T.);
#386=ADVANCED_FACE($,(#40),#23,.T.);
#387=ADVANCED_FACE($,(#41),#368,.T.);
#388=ADVANCED_FACE($,(#42),#24,.T.);
#389=ADVANCED_FACE($,(#43),#369,.T.);
#390=ADVANCED_FACE($,(#44),#370,.F.);
#391=CLOSED_SHELL($,(#371,#372,#373,#374,#375,#376,#377,#378,#379,#380,
#381,#382,#383,#384,#385,#386,#387,#388,#389,#390));
#392=MANIFOLD_SOLID_BREP('T\X2\011B\X0\leso1',#391);
#393=AXIS2_PLACEMENT_3D('placement',#526,#422,#423);
#394=AXIS2_PLACEMENT_3D($,#527,#424,#425);
#395=AXIS2_PLACEMENT_3D($,#536,#430,#431);
#396=AXIS2_PLACEMENT_3D($,#542,#435,#436);
#397=AXIS2_PLACEMENT_3D($,#548,#440,#441);
#398=AXIS2_PLACEMENT_3D($,#554,#445,#446);
#399=AXIS2_PLACEMENT_3D($,#560,#450,#451);
#400=AXIS2_PLACEMENT_3D($,#562,#452,#453);
#401=AXIS2_PLACEMENT_3D($,#565,#455,#456);
#402=AXIS2_PLACEMENT_3D($,#566,#457,#458);
#403=AXIS2_PLACEMENT_3D($,#572,#462,#463);
#404=AXIS2_PLACEMENT_3D($,#578,#467,#468);
#405=AXIS2_PLACEMENT_3D($,#584,#472,#473);
#406=AXIS2_PLACEMENT_3D($,#586,#474,#475);
#407=AXIS2_PLACEMENT_3D($,#589,#477,#478);
#408=AXIS2_PLACEMENT_3D($,#590,#479,#480);
#409=AXIS2_PLACEMENT_3D($,#596,#484,#485);
#410=AXIS2_PLACEMENT_3D($,#602,#489,#490);
#411=AXIS2_PLACEMENT_3D($,#608,#494,#495);
#412=AXIS2_PLACEMENT_3D($,#614,#499,#500);
#413=AXIS2_PLACEMENT_3D($,#620,#504,#505);
#414=AXIS2_PLACEMENT_3D($,#622,#506,#507);
#415=AXIS2_PLACEMENT_3D($,#625,#509,#510);
#416=AXIS2_PLACEMENT_3D($,#626,#511,#512);
#417=AXIS2_PLACEMENT_3D($,#632,#516,#517);
#418=AXIS2_PLACEMENT_3D($,#633,#518,#519);
#419=AXIS2_PLACEMENT_3D($,#634,#520,#521);
#420=AXIS2_PLACEMENT_3D($,#635,#522,#523);
#421=AXIS2_PLACEMENT_3D($,#636,#524,#525);
#422=DIRECTION('axis',(0.,0.,1.));
#423=DIRECTION('refdir',(1.,0.,0.));
#424=DIRECTION('center_axis',(0.999914441197797,0.013080912968784,0.));
#425=DIRECTION('ref_axis',(0.,0.,-1.));
#426=DIRECTION($,(0.013080912968784,-0.999914441197797,0.));
#427=DIRECTION($,(0.,0.,1.));
#428=DIRECTION($,(0.013080912968784,-0.999914441197797,0.));
#429=DIRECTION($,(0.,0.,1.));
#430=DIRECTION('center_axis',(0.969866442416147,0.243637197231962,0.));
#431=DIRECTION('ref_axis',(0.,0.,-1.));
#432=DIRECTION($,(0.243637197231962,-0.969866442416147,0.));
#433=DIRECTION($,(0.,0.,1.));
#434=DIRECTION($,(0.243637197231962,-0.969866442416147,0.));
#435=DIRECTION('center_axis',(0.999914441197797,0.0130809129687839,0.));
#436=DIRECTION('ref_axis',(0.,0.,-1.));
#437=DIRECTION($,(0.0130809129687839,-0.999914441197797,0.));
#438=DIRECTION($,(0.,0.,1.));
#439=DIRECTION($,(0.0130809129687839,-0.999914441197797,0.));
#440=DIRECTION('center_axis',(0.975596309948529,-0.219571947240112,0.));
#441=DIRECTION('ref_axis',(0.,0.,-1.));
#442=DIRECTION($,(-0.219571947240112,-0.975596309948529,0.));
#443=DIRECTION($,(0.,0.,1.));
#444=DIRECTION($,(-0.219571947240112,-0.975596309948529,0.));
#445=DIRECTION('center_axis',(0.999900131646517,0.0141324708836577,0.));
#446=DIRECTION('ref_axis',(0.,0.,-1.));
#447=DIRECTION($,(0.0141324708836577,-0.999900131646517,0.));
#448=DIRECTION($,(0.,0.,1.));
#449=DIRECTION($,(0.0141324708836577,-0.999900131646517,0.));
#450=DIRECTION('center_axis',(0.,0.,1.));
#451=DIRECTION('ref_axis',(-0.998552840868483,-0.0537794012004708,0.));
#452=DIRECTION('center_axis',(0.,0.,-1.));
#453=DIRECTION('ref_axis',(-0.998552840868483,-0.0537794012004708,0.));
#454=DIRECTION($,(0.,0.,1.));
#455=DIRECTION('center_axis',(0.,0.,-1.));
#456=DIRECTION('ref_axis',(-0.998552840868483,-0.0537794012004708,0.));
#457=DIRECTION('center_axis',(-0.998552840868484,-0.053779401200471,0.));
#458=DIRECTION('ref_axis',(0.,0.,1.));
#459=DIRECTION($,(-0.0537794012004709,0.998552840868483,0.));
#460=DIRECTION($,(0.,0.,1.));
#461=DIRECTION($,(-0.0537794012004709,0.998552840868483,0.));
#462=DIRECTION('center_axis',(9.96455050465931E-006,-0.999999999950354,
0.));
#463=DIRECTION('ref_axis',(0.,0.,-1.));
#464=DIRECTION($,(-0.999999999950354,-9.96455050465931E-006,0.));
#465=DIRECTION($,(0.,0.,1.));
#466=DIRECTION($,(-0.999999999950354,-9.96455050465931E-006,0.));
#467=DIRECTION('center_axis',(0.998552840868484,-0.0537794012004709,0.));
#468=DIRECTION('ref_axis',(0.,0.,-1.));
#469=DIRECTION($,(-0.0537794012004709,-0.998552840868483,0.));
#470=DIRECTION($,(0.,0.,1.));
#471=DIRECTION($,(-0.0537794012004709,-0.998552840868483,0.));
#472=DIRECTION('center_axis',(0.,0.,1.));
#473=DIRECTION('ref_axis',(-0.999900134353608,0.0141322793503987,0.));
#474=DIRECTION('center_axis',(0.,0.,-1.));
#475=DIRECTION('ref_axis',(-0.999900134353608,0.0141322793503987,0.));
#476=DIRECTION($,(0.,0.,1.));
#477=DIRECTION('center_axis',(0.,0.,-1.));
#478=DIRECTION('ref_axis',(-0.999900134353608,0.0141322793503987,0.));
#479=DIRECTION('center_axis',(-0.999900134353608,0.0141322793503981,0.));
#480=DIRECTION('ref_axis',(0.,0.,1.));
#481=DIRECTION($,(0.0141322793503981,0.999900134353608,0.));
#482=DIRECTION($,(0.,0.,1.));
#483=DIRECTION($,(0.0141322793503981,0.999900134353608,0.));
#484=DIRECTION('center_axis',(-0.975596309948529,-0.219571947240112,0.));
#485=DIRECTION('ref_axis',(0.,0.,1.));
#486=DIRECTION($,(-0.219571947240112,0.975596309948529,0.));
#487=DIRECTION($,(0.,0.,1.));
#488=DIRECTION($,(-0.219571947240112,0.975596309948529,0.));
#489=DIRECTION('center_axis',(-0.999914572356071,0.0130708832898325,0.));
#490=DIRECTION('ref_axis',(0.,0.,1.));
#491=DIRECTION($,(0.0130708832898325,0.999914572356071,0.));
#492=DIRECTION($,(0.,0.,1.));
#493=DIRECTION($,(0.0130708832898325,0.999914572356071,0.));
#494=DIRECTION('center_axis',(-0.969866442416147,0.243637197231965,0.));
#495=DIRECTION('ref_axis',(0.,0.,1.));
#496=DIRECTION($,(0.243637197231965,0.969866442416147,0.));
#497=DIRECTION($,(0.,0.,1.));
#498=DIRECTION($,(0.243637197231965,0.969866442416147,0.));
#499=DIRECTION('center_axis',(-0.999914572356071,0.0130708832898327,0.));
#500=DIRECTION('ref_axis',(0.,0.,1.));
#501=DIRECTION($,(0.0130708832898327,0.999914572356071,0.));
#502=DIRECTION($,(0.,0.,1.));
#503=DIRECTION($,(0.0130708832898327,0.999914572356071,0.));
#504=DIRECTION('center_axis',(0.,0.,1.));
#505=DIRECTION('ref_axis',(-9.96455050472634E-006,0.999999999950354,0.));
#506=DIRECTION('center_axis',(0.,0.,-1.));
#507=DIRECTION('ref_axis',(-9.96455050472634E-006,0.999999999950354,0.));
#508=DIRECTION($,(0.,0.,1.));
#509=DIRECTION('center_axis',(0.,0.,-1.));
#510=DIRECTION('ref_axis',(-9.96455050472634E-006,0.999999999950354,0.));
#511=DIRECTION('center_axis',(-9.96455050452625E-006,0.999999999950354,
0.));
#512=DIRECTION('ref_axis',(0.,0.,1.));
#513=DIRECTION($,(0.999999999950354,9.96455050452625E-006,0.));
#514=DIRECTION($,(0.,0.,1.));
#515=DIRECTION($,(0.999999999950354,9.96455050452625E-006,0.));
#516=DIRECTION('center_axis',(0.,0.,1.));
#517=DIRECTION('ref_axis',(0.999914441197797,0.0130809129687913,0.));
#518=DIRECTION('center_axis',(0.,0.,-1.));
#519=DIRECTION('ref_axis',(0.999914441197797,0.0130809129687913,0.));
#520=DIRECTION('center_axis',(0.,0.,-1.));
#521=DIRECTION('ref_axis',(0.999914441197797,0.0130809129687913,0.));
#522=DIRECTION('center_axis',(0.,0.,1.));
#523=DIRECTION('ref_axis',(1.,0.,0.));
#524=DIRECTION('center_axis',(0.,0.,1.));
#525=DIRECTION('ref_axis',(1.,0.,0.));
#526=CARTESIAN_POINT('',(0.,0.,0.));
#527=CARTESIAN_POINT('Origin',(4.10326139740463,-0.246650965156693,0.));
#528=CARTESIAN_POINT('',(4.10326139740463,-0.246650965156693,100.));
#529=CARTESIAN_POINT('',(4.15890823324711,-4.50033531415014,100.));
#530=CARTESIAN_POINT($,(4.15034624264711,-3.84585056474729,100.));
#531=CARTESIAN_POINT('',(4.15890823324711,-4.50033531415014,0.));
#532=CARTESIAN_POINT($,(4.15890823324711,-4.50033531415014,0.));
#533=CARTESIAN_POINT('',(4.10326139740463,-0.246650965156693,0.));
#534=CARTESIAN_POINT($,(4.15034624264711,-3.84585056474729,0.));
#535=CARTESIAN_POINT($,(4.10326139740463,-0.246650965156693,0.));
#536=CARTESIAN_POINT('Origin',(4.15890823324711,-4.50033531415014,0.));
#537=CARTESIAN_POINT('',(4.44769083319902,-5.64991573959063,100.));
#538=CARTESIAN_POINT($,(4.389873108396,-5.41975601151793,100.));
#539=CARTESIAN_POINT('',(4.44769083319902,-5.64991573959063,0.));
#540=CARTESIAN_POINT($,(4.44769083319902,-5.64991573959063,0.));
#541=CARTESIAN_POINT($,(4.389873108396,-5.41975601151793,0.));
#542=CARTESIAN_POINT('Origin',(4.44769083319902,-5.64991573959063,0.));
#543=CARTESIAN_POINT('',(4.50001899933761,-9.64991857794216,100.));
#544=CARTESIAN_POINT($,(4.45940941623388,-6.54569269605332,100.));
#545=CARTESIAN_POINT('',(4.50001899933761,-9.64991857794216,0.));
#546=CARTESIAN_POINT($,(4.50001899933761,-9.64991857794216,0.));
#547=CARTESIAN_POINT($,(4.45940941623388,-6.54569269605332,0.));
#548=CARTESIAN_POINT('Origin',(4.50001899933761,-9.64991857794216,0.));
#549=CARTESIAN_POINT('',(4.24117667628654,-10.7999999904414,100.));
#550=CARTESIAN_POINT($,(4.62181719005126,-9.10874805542223,100.));
#551=CARTESIAN_POINT('',(4.24117667628654,-10.7999999904414,0.));
#552=CARTESIAN_POINT($,(4.24117667628654,-10.7999999904414,0.));
#553=CARTESIAN_POINT($,(4.62181719005126,-9.10874805542223,0.));
#554=CARTESIAN_POINT('Origin',(4.24117667628654,-10.7999999904414,0.));
#555=CARTESIAN_POINT('',(4.29337216236525,-14.492933365723,100.));
#556=CARTESIAN_POINT($,(4.217436615176,-9.12034393983724,100.));
#557=CARTESIAN_POINT('',(4.29337216236525,-14.492933365723,0.));
#558=CARTESIAN_POINT($,(4.29337216236525,-14.492933365723,0.));
#559=CARTESIAN_POINT($,(4.217436615176,-9.12034393983724,0.));
#560=CARTESIAN_POINT('Origin',(3.79342173545578,-14.4999996062684,0.));
#561=CARTESIAN_POINT('',(3.29414495442188,-14.5268893262895,100.));
#562=CARTESIAN_POINT('Origin',(3.79342173545578,-14.4999996062684,100.));
#563=CARTESIAN_POINT('',(3.29414495442188,-14.5268893262895,0.));
#564=CARTESIAN_POINT($,(3.29414495442188,-14.5268893262895,0.));
#565=CARTESIAN_POINT('Origin',(3.79342173545578,-14.4999996062684,0.));
#566=CARTESIAN_POINT('Origin',(3.29414495442188,-14.5268893262895,0.));
#567=CARTESIAN_POINT('',(2.61947859424534,-1.99997389855182,100.));
#568=CARTESIAN_POINT($,(3.10070270956489,-10.9351367438114,100.));
#569=CARTESIAN_POINT('',(2.61947859424534,-1.99997389855182,0.));
#570=CARTESIAN_POINT($,(2.61947859424534,-1.99997389855182,0.));
#571=CARTESIAN_POINT($,(3.10070270956489,-10.9351367438114,0.));
#572=CARTESIAN_POINT('Origin',(2.61947859424534,-1.99997389855182,0.));
#573=CARTESIAN_POINT('',(-2.61947999098565,-2.00002610241924,100.));
#574=CARTESIAN_POINT($,(1.30971664463765,-1.99998694974092,100.));
#575=CARTESIAN_POINT('',(-2.61947999098565,-2.00002610241924,0.));
#576=CARTESIAN_POINT($,(-2.61947999098565,-2.00002610241924,0.));
#577=CARTESIAN_POINT($,(1.30971664463765,-1.99998694974092,0.));
#578=CARTESIAN_POINT('Origin',(-2.61947999098565,-2.00002610241924,0.));
#579=CARTESIAN_POINT('',(-3.29414358145156,-14.5268901033587,100.));
#580=CARTESIAN_POINT($,(-2.763369495007,-4.6717046597181,100.));
#581=CARTESIAN_POINT('',(-3.29414358145156,-14.5268901033587,0.));
#582=CARTESIAN_POINT($,(-3.29414358145156,-14.5268901033587,0.));
#583=CARTESIAN_POINT($,(-2.763369495007,-4.6717046597181,0.));
#584=CARTESIAN_POINT('Origin',(-3.79342036248547,-14.5000003833376,0.));
#585=CARTESIAN_POINT('',(-4.29337079074848,-14.4929342385589,100.));
#586=CARTESIAN_POINT('Origin',(-3.79342036248547,-14.5000003833376,100.));
#587=CARTESIAN_POINT('',(-4.29337079074848,-14.4929342385589,0.));
#588=CARTESIAN_POINT($,(-4.29337079074848,-14.4929342385589,0.));
#589=CARTESIAN_POINT('Origin',(-3.79342036248547,-14.5000003833376,0.));
#590=CARTESIAN_POINT('Origin',(-4.29337079074848,-14.4929342385589,0.));
#591=CARTESIAN_POINT('',(-4.241176,-10.8,100.));
#592=CARTESIAN_POINT($,(-4.24353365978542,-10.9668113315446,100.));
#593=CARTESIAN_POINT('',(-4.241176,-10.8,0.));
#594=CARTESIAN_POINT($,(-4.241176,-10.8,0.));
#595=CARTESIAN_POINT($,(-4.24353365978542,-10.9668113315446,0.));
#596=CARTESIAN_POINT('Origin',(-4.241176,-10.8,0.));
#597=CARTESIAN_POINT('',(-4.50000000000001,-9.65,100.));
#598=CARTESIAN_POINT($,(-4.49239491156897,-9.68379072920475,100.));
#599=CARTESIAN_POINT('',(-4.50000000000001,-9.65,0.));
#600=CARTESIAN_POINT($,(-4.50000000000001,-9.65,0.));
#601=CARTESIAN_POINT($,(-4.49239491156897,-9.68379072920475,0.));
#602=CARTESIAN_POINT('Origin',(-4.50000000000001,-9.65,0.));
#603=CARTESIAN_POINT('',(-4.44771200000003,-5.65,100.));
#604=CARTESIAN_POINT($,(-4.48556533697187,-8.54575711228996,100.));
#605=CARTESIAN_POINT('',(-4.44771200000003,-5.65,0.));
#606=CARTESIAN_POINT($,(-4.44771200000003,-5.65,0.));
#607=CARTESIAN_POINT($,(-4.48556533697187,-8.54575711228996,0.));
#608=CARTESIAN_POINT('Origin',(-4.44771200000003,-5.65,0.));
#609=CARTESIAN_POINT('',(-4.15880165916407,-4.49991106601417,100.));
#610=CARTESIAN_POINT($,(-4.53427442788083,-5.99458610971347,100.));
#611=CARTESIAN_POINT('',(-4.15880165916407,-4.49991106601417,0.));
#612=CARTESIAN_POINT($,(-4.15880165916407,-4.49991106601417,0.));
#613=CARTESIAN_POINT($,(-4.53427442788083,-5.99458610971347,0.));
#614=CARTESIAN_POINT('Origin',(-4.15880165916407,-4.49991106601417,0.));
#615=CARTESIAN_POINT('',(-4.10320407972627,-0.246730264466845,100.));
#616=CARTESIAN_POINT($,(-4.17805137302282,-5.97250239547808,100.));
#617=CARTESIAN_POINT('',(-4.10320407972627,-0.246730264466845,0.));
#618=CARTESIAN_POINT($,(-4.10320407972627,-0.246730264466845,0.));
#619=CARTESIAN_POINT($,(-4.17805137302282,-5.97250239547808,0.));
#620=CARTESIAN_POINT('Origin',(-3.85322543663725,-0.249997985289303,0.));
#621=CARTESIAN_POINT('',(-3.85322792777488,2.01469828504247E-006,100.));
#622=CARTESIAN_POINT('Origin',(-3.85322543663725,-0.249997985289303,100.));
#623=CARTESIAN_POINT('',(-3.85322792777488,2.01469828504247E-006,0.));
#624=CARTESIAN_POINT($,(-3.85322792777488,2.01469828504247E-006,0.));
#625=CARTESIAN_POINT('Origin',(-3.85322543663725,-0.249997985289303,0.));
#626=CARTESIAN_POINT('Origin',(-3.85322792777488,2.01469828504247E-006,
0.));
#627=CARTESIAN_POINT('',(3.85328029596755,7.88065886978832E-005,100.));
#628=CARTESIAN_POINT($,(-1.9266465811243,2.12122154163996E-005,100.));
#629=CARTESIAN_POINT('',(3.85328029596755,7.88065886978832E-005,0.));
#630=CARTESIAN_POINT($,(3.85328029596755,7.88065886978832E-005,0.));
#631=CARTESIAN_POINT($,(-1.9266465811243,2.12122154163996E-005,0.));
#632=CARTESIAN_POINT('Origin',(3.85328278710518,-0.24992119339889,0.));
#633=CARTESIAN_POINT('Origin',(3.85328278710518,-0.24992119339889,100.));
#634=CARTESIAN_POINT('Origin',(3.85328278710518,-0.24992119339889,0.));
#635=CARTESIAN_POINT('Origin',(9.49966879881803E-006,-7.49996096892936,
100.));
#636=CARTESIAN_POINT('Origin',(9.49966879881803E-006,-7.49996096892936,
0.));
#637=UNCERTAINTY_MEASURE_WITH_UNIT(LENGTH_MEASURE(0.01),#639,
'DISTANCE_ACCURACY_VALUE',
'Maximum model space distance between geometric entities at asserted c
onnectivities');
#638=(
GEOMETRIC_REPRESENTATION_CONTEXT(3)
GLOBAL_UNCERTAINTY_ASSIGNED_CONTEXT((#637))
GLOBAL_UNIT_ASSIGNED_CONTEXT((#639,#642,#640))
REPRESENTATION_CONTEXT('','3D')
);
#639=(
LENGTH_UNIT()
NAMED_UNIT(*)
SI_UNIT(.MILLI.,.METRE.)
);
#640=(
NAMED_UNIT(*)
SI_UNIT($,.STERADIAN.)
SOLID_ANGLE_UNIT()
);
#641=DIMENSIONAL_EXPONENTS(0.,0.,0.,0.,0.,0.,0.);
#642=(
CONVERSION_BASED_UNIT('degree',#644)
NAMED_UNIT(#641)
PLANE_ANGLE_UNIT()
);
#643=(
NAMED_UNIT(*)
PLANE_ANGLE_UNIT()
SI_UNIT($,.RADIAN.)
);
#644=PLANE_ANGLE_MEASURE_WITH_UNIT(PLANE_ANGLE_MEASURE(0.01745329252),#643);
#645=SHAPE_DEFINITION_REPRESENTATION(#646,#647);
#646=PRODUCT_DEFINITION_SHAPE('',$,#649);
#647=SHAPE_REPRESENTATION('',(#393),#638);
#648=DESIGN_CONTEXT('3D Mechanical Parts',#652,'design');
#649=PRODUCT_DEFINITION('-230815-28','-230815-28',#650,#648);
#650=PRODUCT_DEFINITION_FORMATION('',$,#654);
#651=APPLICATION_PROTOCOL_DEFINITION('international standard',
'ap203_configuration_controlled_3d_design_of_mechanical_parts_and_asse
mblies_mim_lf',2004,#652);
#652=APPLICATION_CONTEXT(
'Configuration Controlled 3D Design of Mechanical Parts and Assemblies');
#653=MECHANICAL_CONTEXT('3D Mechanical Parts',#652,'mechanical');
#654=PRODUCT('-230815-28','-230815-28',$,(#653));
#655=PRESENTATION_STYLE_ASSIGNMENT((#656));
#656=SURFACE_STYLE_USAGE(.BOTH.,#657);
#657=SURFACE_SIDE_STYLE($,(#658));
#658=SURFACE_STYLE_FILL_AREA(#659);
#659=FILL_AREA_STYLE($,(#660));
#660=FILL_AREA_STYLE_COLOUR($,#661);
#661=COLOUR_RGB('',0.,0.,0.);
ENDSEC;
END-ISO-10303-21;
