ISO-10303-21;
HEADER;
/* Generated by software containing ST-Developer
 * from STEP Tools, Inc. (www.steptools.com) 
 */

FILE_DESCRIPTION(
/* description */ ('Zaslepovac\X\ED profil - 10'),
/* implementation_level */ '2;1');

FILE_NAME(
/* name */ 'C:\\Vault_pracovn\X\ED\\Zak\X\E1zky\\Kal\X\E1b_pokus\\2308
26.stp',
/* time_stamp */ '2014-08-19T09:27:50+02:00',
/* author */ ('jank'),
/* organization */ (''),
/* preprocessor_version */ 'ST-DEVELOPER v15.2',
/* originating_system */ 'Autodesk Inventor 2014',
/* authorisation */ '');

FILE_SCHEMA (('CONFIG_CONTROL_DESIGN'));
ENDSEC;

DATA;
#10=SHAPE_REPRESENTATION_RELATIONSHIP('SRR','None',#515,#11);
#11=ADVANCED_BREP_SHAPE_REPRESENTATION($,(#308),#506);
#12=STYLED_ITEM($,(#523),#308);
#13=CIRCLE($,#312,30.);
#14=CIRCLE($,#313,30.);
#15=CIRCLE($,#317,30.75);
#16=CIRCLE($,#318,30.75);
#17=CIRCLE($,#325,30.75);
#18=CIRCLE($,#326,30.75);
#19=CIRCLE($,#330,30.);
#20=CIRCLE($,#331,30.);
#21=CYLINDRICAL_SURFACE($,#311,30.);
#22=CYLINDRICAL_SURFACE($,#316,30.75);
#23=CYLINDRICAL_SURFACE($,#324,30.75);
#24=CYLINDRICAL_SURFACE($,#329,30.);
#25=FACE_OUTER_BOUND($,#41,.T.);
#26=FACE_OUTER_BOUND($,#42,.T.);
#27=FACE_OUTER_BOUND($,#43,.T.);
#28=FACE_OUTER_BOUND($,#44,.T.);
#29=FACE_OUTER_BOUND($,#45,.T.);
#30=FACE_OUTER_BOUND($,#46,.T.);
#31=FACE_OUTER_BOUND($,#47,.T.);
#32=FACE_OUTER_BOUND($,#48,.T.);
#33=FACE_OUTER_BOUND($,#49,.T.);
#34=FACE_OUTER_BOUND($,#50,.T.);
#35=FACE_OUTER_BOUND($,#51,.T.);
#36=FACE_OUTER_BOUND($,#52,.T.);
#37=FACE_OUTER_BOUND($,#53,.T.);
#38=FACE_OUTER_BOUND($,#54,.T.);
#39=FACE_OUTER_BOUND($,#55,.T.);
#40=FACE_OUTER_BOUND($,#56,.T.);
#41=EDGE_LOOP($,(#195,#196,#197,#198));
#42=EDGE_LOOP($,(#199,#200,#201,#202));
#43=EDGE_LOOP($,(#203,#204,#205,#206));
#44=EDGE_LOOP($,(#207,#208,#209,#210));
#45=EDGE_LOOP($,(#211,#212,#213,#214));
#46=EDGE_LOOP($,(#215,#216,#217,#218));
#47=EDGE_LOOP($,(#219,#220,#221,#222));
#48=EDGE_LOOP($,(#223,#224,#225,#226));
#49=EDGE_LOOP($,(#227,#228,#229,#230));
#50=EDGE_LOOP($,(#231,#232,#233,#234));
#51=EDGE_LOOP($,(#235,#236,#237,#238));
#52=EDGE_LOOP($,(#239,#240,#241,#242));
#53=EDGE_LOOP($,(#243,#244,#245,#246));
#54=EDGE_LOOP($,(#247,#248,#249,#250));
#55=EDGE_LOOP($,(#251,#252,#253,#254,#255,#256,#257,#258,#259,#260,#261,
#262,#263,#264));
#56=EDGE_LOOP($,(#265,#266,#267,#268,#269,#270,#271,#272,#273,#274,#275,
#276,#277,#278));
#57=LINE($,#422,#91);
#58=LINE($,#424,#92);
#59=LINE($,#426,#93);
#60=LINE($,#427,#94);
#61=LINE($,#432,#95);
#62=LINE($,#436,#96);
#63=LINE($,#438,#97);
#64=LINE($,#439,#98);
#65=LINE($,#442,#99);
#66=LINE($,#444,#100);
#67=LINE($,#445,#101);
#68=LINE($,#450,#102);
#69=LINE($,#454,#103);
#70=LINE($,#456,#104);
#71=LINE($,#457,#105);
#72=LINE($,#460,#106);
#73=LINE($,#462,#107);
#74=LINE($,#463,#108);
#75=LINE($,#466,#109);
#76=LINE($,#468,#110);
#77=LINE($,#469,#111);
#78=LINE($,#472,#112);
#79=LINE($,#474,#113);
#80=LINE($,#475,#114);
#81=LINE($,#478,#115);
#82=LINE($,#480,#116);
#83=LINE($,#481,#117);
#84=LINE($,#486,#118);
#85=LINE($,#490,#119);
#86=LINE($,#492,#120);
#87=LINE($,#493,#121);
#88=LINE($,#496,#122);
#89=LINE($,#498,#123);
#90=LINE($,#499,#124);
#91=VECTOR($,#338,8.33101202553739);
#92=VECTOR($,#339,100.);
#93=VECTOR($,#340,8.33101202553739);
#94=VECTOR($,#341,100.);
#95=VECTOR($,#346,100.);
#96=VECTOR($,#351,2.05378791519825);
#97=VECTOR($,#352,100.);
#98=VECTOR($,#353,2.05378791519825);
#99=VECTOR($,#356,0.5);
#100=VECTOR($,#357,100.);
#101=VECTOR($,#358,0.5);
#102=VECTOR($,#363,100.);
#103=VECTOR($,#368,0.882427549608691);
#104=VECTOR($,#369,100.);
#105=VECTOR($,#370,0.882427549608691);
#106=VECTOR($,#373,1.5);
#107=VECTOR($,#374,100.);
#108=VECTOR($,#375,1.5);
#109=VECTOR($,#378,11.6);
#110=VECTOR($,#379,100.);
#111=VECTOR($,#380,11.6);
#112=VECTOR($,#383,1.5);
#113=VECTOR($,#384,100.);
#114=VECTOR($,#385,1.5);
#115=VECTOR($,#388,0.88242754960869);
#116=VECTOR($,#389,100.);
#117=VECTOR($,#390,0.88242754960869);
#118=VECTOR($,#395,100.);
#119=VECTOR($,#400,0.5);
#120=VECTOR($,#401,100.);
#121=VECTOR($,#402,0.5);
#122=VECTOR($,#405,2.05378791519832);
#123=VECTOR($,#406,100.);
#124=VECTOR($,#407,2.05378791519832);
#125=VERTEX_POINT($,#420);
#126=VERTEX_POINT($,#421);
#127=VERTEX_POINT($,#423);
#128=VERTEX_POINT($,#425);
#129=VERTEX_POINT($,#429);
#130=VERTEX_POINT($,#431);
#131=VERTEX_POINT($,#435);
#132=VERTEX_POINT($,#437);
#133=VERTEX_POINT($,#441);
#134=VERTEX_POINT($,#443);
#135=VERTEX_POINT($,#447);
#136=VERTEX_POINT($,#449);
#137=VERTEX_POINT($,#453);
#138=VERTEX_POINT($,#455);
#139=VERTEX_POINT($,#459);
#140=VERTEX_POINT($,#461);
#141=VERTEX_POINT($,#465);
#142=VERTEX_POINT($,#467);
#143=VERTEX_POINT($,#471);
#144=VERTEX_POINT($,#473);
#145=VERTEX_POINT($,#477);
#146=VERTEX_POINT($,#479);
#147=VERTEX_POINT($,#483);
#148=VERTEX_POINT($,#485);
#149=VERTEX_POINT($,#489);
#150=VERTEX_POINT($,#491);
#151=VERTEX_POINT($,#495);
#152=VERTEX_POINT($,#497);
#153=EDGE_CURVE($,#125,#126,#57,.T.);
#154=EDGE_CURVE($,#127,#126,#58,.T.);
#155=EDGE_CURVE($,#128,#127,#59,.T.);
#156=EDGE_CURVE($,#128,#125,#60,.T.);
#157=EDGE_CURVE($,#126,#129,#13,.T.);
#158=EDGE_CURVE($,#130,#129,#61,.T.);
#159=EDGE_CURVE($,#127,#130,#14,.T.);
#160=EDGE_CURVE($,#129,#131,#62,.T.);
#161=EDGE_CURVE($,#132,#131,#63,.T.);
#162=EDGE_CURVE($,#130,#132,#64,.T.);
#163=EDGE_CURVE($,#131,#133,#65,.T.);
#164=EDGE_CURVE($,#134,#133,#66,.T.);
#165=EDGE_CURVE($,#132,#134,#67,.T.);
#166=EDGE_CURVE($,#133,#135,#15,.T.);
#167=EDGE_CURVE($,#136,#135,#68,.T.);
#168=EDGE_CURVE($,#134,#136,#16,.T.);
#169=EDGE_CURVE($,#135,#137,#69,.T.);
#170=EDGE_CURVE($,#138,#137,#70,.T.);
#171=EDGE_CURVE($,#136,#138,#71,.T.);
#172=EDGE_CURVE($,#137,#139,#72,.T.);
#173=EDGE_CURVE($,#140,#139,#73,.T.);
#174=EDGE_CURVE($,#138,#140,#74,.T.);
#175=EDGE_CURVE($,#139,#141,#75,.T.);
#176=EDGE_CURVE($,#142,#141,#76,.T.);
#177=EDGE_CURVE($,#140,#142,#77,.T.);
#178=EDGE_CURVE($,#141,#143,#78,.T.);
#179=EDGE_CURVE($,#144,#143,#79,.T.);
#180=EDGE_CURVE($,#142,#144,#80,.T.);
#181=EDGE_CURVE($,#143,#145,#81,.T.);
#182=EDGE_CURVE($,#146,#145,#82,.T.);
#183=EDGE_CURVE($,#144,#146,#83,.T.);
#184=EDGE_CURVE($,#145,#147,#17,.T.);
#185=EDGE_CURVE($,#148,#147,#84,.T.);
#186=EDGE_CURVE($,#146,#148,#18,.T.);
#187=EDGE_CURVE($,#147,#149,#85,.T.);
#188=EDGE_CURVE($,#150,#149,#86,.T.);
#189=EDGE_CURVE($,#148,#150,#87,.T.);
#190=EDGE_CURVE($,#149,#151,#88,.T.);
#191=EDGE_CURVE($,#152,#151,#89,.T.);
#192=EDGE_CURVE($,#150,#152,#90,.T.);
#193=EDGE_CURVE($,#151,#125,#19,.T.);
#194=EDGE_CURVE($,#152,#128,#20,.T.);
#195=ORIENTED_EDGE($,*,*,#153,.T.);
#196=ORIENTED_EDGE($,*,*,#154,.F.);
#197=ORIENTED_EDGE($,*,*,#155,.F.);
#198=ORIENTED_EDGE($,*,*,#156,.T.);
#199=ORIENTED_EDGE($,*,*,#157,.T.);
#200=ORIENTED_EDGE($,*,*,#158,.F.);
#201=ORIENTED_EDGE($,*,*,#159,.F.);
#202=ORIENTED_EDGE($,*,*,#154,.T.);
#203=ORIENTED_EDGE($,*,*,#160,.T.);
#204=ORIENTED_EDGE($,*,*,#161,.F.);
#205=ORIENTED_EDGE($,*,*,#162,.F.);
#206=ORIENTED_EDGE($,*,*,#158,.T.);
#207=ORIENTED_EDGE($,*,*,#163,.T.);
#208=ORIENTED_EDGE($,*,*,#164,.F.);
#209=ORIENTED_EDGE($,*,*,#165,.F.);
#210=ORIENTED_EDGE($,*,*,#161,.T.);
#211=ORIENTED_EDGE($,*,*,#166,.T.);
#212=ORIENTED_EDGE($,*,*,#167,.F.);
#213=ORIENTED_EDGE($,*,*,#168,.F.);
#214=ORIENTED_EDGE($,*,*,#164,.T.);
#215=ORIENTED_EDGE($,*,*,#169,.T.);
#216=ORIENTED_EDGE($,*,*,#170,.F.);
#217=ORIENTED_EDGE($,*,*,#171,.F.);
#218=ORIENTED_EDGE($,*,*,#167,.T.);
#219=ORIENTED_EDGE($,*,*,#172,.T.);
#220=ORIENTED_EDGE($,*,*,#173,.F.);
#221=ORIENTED_EDGE($,*,*,#174,.F.);
#222=ORIENTED_EDGE($,*,*,#170,.T.);
#223=ORIENTED_EDGE($,*,*,#175,.T.);
#224=ORIENTED_EDGE($,*,*,#176,.F.);
#225=ORIENTED_EDGE($,*,*,#177,.F.);
#226=ORIENTED_EDGE($,*,*,#173,.T.);
#227=ORIENTED_EDGE($,*,*,#178,.T.);
#228=ORIENTED_EDGE($,*,*,#179,.F.);
#229=ORIENTED_EDGE($,*,*,#180,.F.);
#230=ORIENTED_EDGE($,*,*,#176,.T.);
#231=ORIENTED_EDGE($,*,*,#181,.T.);
#232=ORIENTED_EDGE($,*,*,#182,.F.);
#233=ORIENTED_EDGE($,*,*,#183,.F.);
#234=ORIENTED_EDGE($,*,*,#179,.T.);
#235=ORIENTED_EDGE($,*,*,#184,.T.);
#236=ORIENTED_EDGE($,*,*,#185,.F.);
#237=ORIENTED_EDGE($,*,*,#186,.F.);
#238=ORIENTED_EDGE($,*,*,#182,.T.);
#239=ORIENTED_EDGE($,*,*,#187,.T.);
#240=ORIENTED_EDGE($,*,*,#188,.F.);
#241=ORIENTED_EDGE($,*,*,#189,.F.);
#242=ORIENTED_EDGE($,*,*,#185,.T.);
#243=ORIENTED_EDGE($,*,*,#190,.T.);
#244=ORIENTED_EDGE($,*,*,#191,.F.);
#245=ORIENTED_EDGE($,*,*,#192,.F.);
#246=ORIENTED_EDGE($,*,*,#188,.T.);
#247=ORIENTED_EDGE($,*,*,#193,.T.);
#248=ORIENTED_EDGE($,*,*,#156,.F.);
#249=ORIENTED_EDGE($,*,*,#194,.F.);
#250=ORIENTED_EDGE($,*,*,#191,.T.);
#251=ORIENTED_EDGE($,*,*,#175,.F.);
#252=ORIENTED_EDGE($,*,*,#172,.F.);
#253=ORIENTED_EDGE($,*,*,#169,.F.);
#254=ORIENTED_EDGE($,*,*,#166,.F.);
#255=ORIENTED_EDGE($,*,*,#163,.F.);
#256=ORIENTED_EDGE($,*,*,#160,.F.);
#257=ORIENTED_EDGE($,*,*,#157,.F.);
#258=ORIENTED_EDGE($,*,*,#153,.F.);
#259=ORIENTED_EDGE($,*,*,#193,.F.);
#260=ORIENTED_EDGE($,*,*,#190,.F.);
#261=ORIENTED_EDGE($,*,*,#187,.F.);
#262=ORIENTED_EDGE($,*,*,#184,.F.);
#263=ORIENTED_EDGE($,*,*,#181,.F.);
#264=ORIENTED_EDGE($,*,*,#178,.F.);
#265=ORIENTED_EDGE($,*,*,#177,.T.);
#266=ORIENTED_EDGE($,*,*,#180,.T.);
#267=ORIENTED_EDGE($,*,*,#183,.T.);
#268=ORIENTED_EDGE($,*,*,#186,.T.);
#269=ORIENTED_EDGE($,*,*,#189,.T.);
#270=ORIENTED_EDGE($,*,*,#192,.T.);
#271=ORIENTED_EDGE($,*,*,#194,.T.);
#272=ORIENTED_EDGE($,*,*,#155,.T.);
#273=ORIENTED_EDGE($,*,*,#159,.T.);
#274=ORIENTED_EDGE($,*,*,#162,.T.);
#275=ORIENTED_EDGE($,*,*,#165,.T.);
#276=ORIENTED_EDGE($,*,*,#168,.T.);
#277=ORIENTED_EDGE($,*,*,#171,.T.);
#278=ORIENTED_EDGE($,*,*,#174,.T.);
#279=PLANE($,#310);
#280=PLANE($,#314);
#281=PLANE($,#315);
#282=PLANE($,#319);
#283=PLANE($,#320);
#284=PLANE($,#321);
#285=PLANE($,#322);
#286=PLANE($,#323);
#287=PLANE($,#327);
#288=PLANE($,#328);
#289=PLANE($,#332);
#290=PLANE($,#333);
#291=ADVANCED_FACE($,(#25),#279,.T.);
#292=ADVANCED_FACE($,(#26),#21,.F.);
#293=ADVANCED_FACE($,(#27),#280,.T.);
#294=ADVANCED_FACE($,(#28),#281,.T.);
#295=ADVANCED_FACE($,(#29),#22,.T.);
#296=ADVANCED_FACE($,(#30),#282,.T.);
#297=ADVANCED_FACE($,(#31),#283,.T.);
#298=ADVANCED_FACE($,(#32),#284,.T.);
#299=ADVANCED_FACE($,(#33),#285,.T.);
#300=ADVANCED_FACE($,(#34),#286,.T.);
#301=ADVANCED_FACE($,(#35),#23,.T.);
#302=ADVANCED_FACE($,(#36),#287,.T.);
#303=ADVANCED_FACE($,(#37),#288,.T.);
#304=ADVANCED_FACE($,(#38),#24,.F.);
#305=ADVANCED_FACE($,(#39),#289,.T.);
#306=ADVANCED_FACE($,(#40),#290,.F.);
#307=CLOSED_SHELL($,(#291,#292,#293,#294,#295,#296,#297,#298,#299,#300,
#301,#302,#303,#304,#305,#306));
#308=MANIFOLD_SOLID_BREP('T\X2\011B\X0\leso2',#307);
#309=AXIS2_PLACEMENT_3D('placement',#418,#334,#335);
#310=AXIS2_PLACEMENT_3D($,#419,#336,#337);
#311=AXIS2_PLACEMENT_3D($,#428,#342,#343);
#312=AXIS2_PLACEMENT_3D($,#430,#344,#345);
#313=AXIS2_PLACEMENT_3D($,#433,#347,#348);
#314=AXIS2_PLACEMENT_3D($,#434,#349,#350);
#315=AXIS2_PLACEMENT_3D($,#440,#354,#355);
#316=AXIS2_PLACEMENT_3D($,#446,#359,#360);
#317=AXIS2_PLACEMENT_3D($,#448,#361,#362);
#318=AXIS2_PLACEMENT_3D($,#451,#364,#365);
#319=AXIS2_PLACEMENT_3D($,#452,#366,#367);
#320=AXIS2_PLACEMENT_3D($,#458,#371,#372);
#321=AXIS2_PLACEMENT_3D($,#464,#376,#377);
#322=AXIS2_PLACEMENT_3D($,#470,#381,#382);
#323=AXIS2_PLACEMENT_3D($,#476,#386,#387);
#324=AXIS2_PLACEMENT_3D($,#482,#391,#392);
#325=AXIS2_PLACEMENT_3D($,#484,#393,#394);
#326=AXIS2_PLACEMENT_3D($,#487,#396,#397);
#327=AXIS2_PLACEMENT_3D($,#488,#398,#399);
#328=AXIS2_PLACEMENT_3D($,#494,#403,#404);
#329=AXIS2_PLACEMENT_3D($,#500,#408,#409);
#330=AXIS2_PLACEMENT_3D($,#501,#410,#411);
#331=AXIS2_PLACEMENT_3D($,#502,#412,#413);
#332=AXIS2_PLACEMENT_3D($,#503,#414,#415);
#333=AXIS2_PLACEMENT_3D($,#504,#416,#417);
#334=DIRECTION('axis',(0.,0.,1.));
#335=DIRECTION('refdir',(1.,0.,0.));
#336=DIRECTION('center_axis',(0.,-1.,0.));
#337=DIRECTION('ref_axis',(0.,0.,-1.));
#338=DIRECTION($,(-1.,0.,0.));
#339=DIRECTION($,(0.,0.,1.));
#340=DIRECTION($,(-1.,0.,0.));
#341=DIRECTION($,(0.,0.,1.));
#342=DIRECTION('center_axis',(0.,0.,1.));
#343=DIRECTION('ref_axis',(-0.997183533758957,0.0750000000000001,0.));
#344=DIRECTION('center_axis',(0.,0.,1.));
#345=DIRECTION('ref_axis',(-0.997183533758957,0.0750000000000001,0.));
#346=DIRECTION($,(0.,0.,1.));
#347=DIRECTION('center_axis',(0.,0.,1.));
#348=DIRECTION('ref_axis',(-0.997183533758957,0.0750000000000001,0.));
#349=DIRECTION('center_axis',(-0.730357788601171,-0.683064785089678,0.));
#350=DIRECTION('ref_axis',(0.,0.,1.));
#351=DIRECTION($,(-0.683064785089678,0.730357788601171,0.));
#352=DIRECTION($,(0.,0.,1.));
#353=DIRECTION($,(-0.683064785089678,0.730357788601171,0.));
#354=DIRECTION('center_axis',(0.,1.,0.));
#355=DIRECTION('ref_axis',(0.,0.,1.));
#356=DIRECTION($,(1.,0.,0.));
#357=DIRECTION($,(0.,0.,1.));
#358=DIRECTION($,(1.,0.,0.));
#359=DIRECTION('center_axis',(0.,0.,1.));
#360=DIRECTION('ref_axis',(0.997319429281018,-0.0731707317073172,0.));
#361=DIRECTION('center_axis',(0.,0.,-1.));
#362=DIRECTION('ref_axis',(0.997319429281018,-0.0731707317073172,0.));
#363=DIRECTION($,(0.,0.,1.));
#364=DIRECTION('center_axis',(0.,0.,-1.));
#365=DIRECTION('ref_axis',(0.997319429281018,-0.0731707317073172,0.));
#366=DIRECTION('center_axis',(0.,-1.,0.));
#367=DIRECTION('ref_axis',(0.,0.,-1.));
#368=DIRECTION($,(-1.,0.,0.));
#369=DIRECTION($,(0.,0.,1.));
#370=DIRECTION($,(-1.,0.,0.));
#371=DIRECTION('center_axis',(-1.,0.,0.));
#372=DIRECTION('ref_axis',(0.,0.,1.));
#373=DIRECTION($,(0.,1.,0.));
#374=DIRECTION($,(0.,0.,1.));
#375=DIRECTION($,(0.,1.,0.));
#376=DIRECTION('center_axis',(0.,1.,0.));
#377=DIRECTION('ref_axis',(0.,0.,1.));
#378=DIRECTION($,(1.,0.,0.));
#379=DIRECTION($,(0.,0.,1.));
#380=DIRECTION($,(1.,0.,0.));
#381=DIRECTION('center_axis',(1.,0.,0.));
#382=DIRECTION('ref_axis',(0.,0.,-1.));
#383=DIRECTION($,(0.,-1.,0.));
#384=DIRECTION($,(0.,0.,1.));
#385=DIRECTION($,(0.,-1.,0.));
#386=DIRECTION('center_axis',(0.,-1.,0.));
#387=DIRECTION('ref_axis',(0.,0.,-1.));
#388=DIRECTION($,(-1.,0.,0.));
#389=DIRECTION($,(0.,0.,1.));
#390=DIRECTION($,(-1.,0.,0.));
#391=DIRECTION('center_axis',(0.,0.,1.));
#392=DIRECTION('ref_axis',(-0.997319429281013,0.0731707317073847,0.));
#393=DIRECTION('center_axis',(0.,0.,-1.));
#394=DIRECTION('ref_axis',(-0.997319429281013,0.0731707317073847,0.));
#395=DIRECTION($,(0.,0.,1.));
#396=DIRECTION('center_axis',(0.,0.,-1.));
#397=DIRECTION('ref_axis',(-0.997319429281013,0.0731707317073847,0.));
#398=DIRECTION('center_axis',(0.,1.,0.));
#399=DIRECTION('ref_axis',(0.,0.,1.));
#400=DIRECTION($,(1.,0.,0.));
#401=DIRECTION($,(0.,0.,1.));
#402=DIRECTION($,(1.,0.,0.));
#403=DIRECTION('center_axis',(0.730357788601146,-0.683064785089704,0.));
#404=DIRECTION('ref_axis',(0.,0.,-1.));
#405=DIRECTION($,(-0.683064785089704,-0.730357788601146,0.));
#406=DIRECTION($,(0.,0.,1.));
#407=DIRECTION($,(-0.683064785089704,-0.730357788601146,0.));
#408=DIRECTION('center_axis',(0.,0.,1.));
#409=DIRECTION('ref_axis',(0.992156741649213,-0.125000000000069,0.));
#410=DIRECTION('center_axis',(0.,0.,1.));
#411=DIRECTION('ref_axis',(0.992156741649213,-0.125000000000069,0.));
#412=DIRECTION('center_axis',(0.,0.,1.));
#413=DIRECTION('ref_axis',(0.992156741649213,-0.125000000000069,0.));
#414=DIRECTION('center_axis',(0.,0.,1.));
#415=DIRECTION('ref_axis',(1.,0.,0.));
#416=DIRECTION('center_axis',(0.,0.,1.));
#417=DIRECTION('ref_axis',(1.,0.,0.));
#418=CARTESIAN_POINT('',(0.,0.,0.));
#419=CARTESIAN_POINT('Origin',(4.1655060127687,-1.5,0.));
#420=CARTESIAN_POINT('',(4.1655060127687,-1.5,100.));
#421=CARTESIAN_POINT('',(-4.1655060127687,-1.5,100.));
#422=CARTESIAN_POINT($,(2.08275300638435,-1.5,100.));
#423=CARTESIAN_POINT('',(-4.1655060127687,-1.5,0.));
#424=CARTESIAN_POINT($,(-4.1655060127687,-1.5,0.));
#425=CARTESIAN_POINT('',(4.1655060127687,-1.5,0.));
#426=CARTESIAN_POINT($,(2.08275300638435,-1.5,0.));
#427=CARTESIAN_POINT($,(4.1655060127687,-1.5,0.));
#428=CARTESIAN_POINT('Origin',(25.75,-3.75,0.));
#429=CARTESIAN_POINT('',(-4.01470224947664,-7.5,100.));
#430=CARTESIAN_POINT('Origin',(25.75,-3.75,100.));
#431=CARTESIAN_POINT('',(-4.01470224947664,-7.5,0.));
#432=CARTESIAN_POINT($,(-4.01470224947664,-7.5,0.));
#433=CARTESIAN_POINT('Origin',(25.75,-3.75,0.));
#434=CARTESIAN_POINT('Origin',(-4.01470224947664,-7.5,0.));
#435=CARTESIAN_POINT('',(-5.41757245039131,-6.,100.));
#436=CARTESIAN_POINT($,(-4.01352053989039,-7.50126352700216,100.));
#437=CARTESIAN_POINT('',(-5.41757245039131,-6.,0.));
#438=CARTESIAN_POINT($,(-5.41757245039131,-6.,0.));
#439=CARTESIAN_POINT($,(-4.01352053989039,-7.50126352700216,0.));
#440=CARTESIAN_POINT('Origin',(-5.41757245039131,-6.,0.));
#441=CARTESIAN_POINT('',(-4.91757245039131,-6.,100.));
#442=CARTESIAN_POINT($,(-2.70878622519565,-6.,100.));
#443=CARTESIAN_POINT('',(-4.91757245039131,-6.,0.));
#444=CARTESIAN_POINT($,(-4.91757245039131,-6.,0.));
#445=CARTESIAN_POINT($,(-2.70878622519565,-6.,0.));
#446=CARTESIAN_POINT('Origin',(25.75,-3.75,0.));
#447=CARTESIAN_POINT('',(-4.91757245039131,-1.5,100.));
#448=CARTESIAN_POINT('Origin',(25.75,-3.75,100.));
#449=CARTESIAN_POINT('',(-4.91757245039131,-1.5,0.));
#450=CARTESIAN_POINT($,(-4.91757245039131,-1.5,0.));
#451=CARTESIAN_POINT('Origin',(25.75,-3.75,0.));
#452=CARTESIAN_POINT('Origin',(-4.91757245039131,-1.5,0.));
#453=CARTESIAN_POINT('',(-5.8,-1.5,100.));
#454=CARTESIAN_POINT($,(-2.45878622519565,-1.5,100.));
#455=CARTESIAN_POINT('',(-5.8,-1.5,0.));
#456=CARTESIAN_POINT($,(-5.8,-1.5,0.));
#457=CARTESIAN_POINT($,(-2.45878622519565,-1.5,0.));
#458=CARTESIAN_POINT('Origin',(-5.8,-1.5,0.));
#459=CARTESIAN_POINT('',(-5.8,0.,100.));
#460=CARTESIAN_POINT($,(-5.8,-2.625,100.));
#461=CARTESIAN_POINT('',(-5.8,0.,0.));
#462=CARTESIAN_POINT($,(-5.8,0.,0.));
#463=CARTESIAN_POINT($,(-5.8,-2.625,0.));
#464=CARTESIAN_POINT('Origin',(-5.8,0.,0.));
#465=CARTESIAN_POINT('',(5.8,0.,100.));
#466=CARTESIAN_POINT($,(-2.9,0.,100.));
#467=CARTESIAN_POINT('',(5.8,0.,0.));
#468=CARTESIAN_POINT($,(5.8,0.,0.));
#469=CARTESIAN_POINT($,(-2.9,0.,0.));
#470=CARTESIAN_POINT('Origin',(5.8,0.,0.));
#471=CARTESIAN_POINT('',(5.8,-1.5,100.));
#472=CARTESIAN_POINT($,(5.8,-1.875,100.));
#473=CARTESIAN_POINT('',(5.8,-1.5,0.));
#474=CARTESIAN_POINT($,(5.8,-1.5,0.));
#475=CARTESIAN_POINT($,(5.8,-1.875,0.));
#476=CARTESIAN_POINT('Origin',(5.8,-1.5,0.));
#477=CARTESIAN_POINT('',(4.91757245039131,-1.5,100.));
#478=CARTESIAN_POINT($,(2.9,-1.5,100.));
#479=CARTESIAN_POINT('',(4.91757245039131,-1.5,0.));
#480=CARTESIAN_POINT($,(4.91757245039131,-1.5,0.));
#481=CARTESIAN_POINT($,(2.9,-1.5,0.));
#482=CARTESIAN_POINT('Origin',(-25.7500000000002,-3.74999999999792,0.));
#483=CARTESIAN_POINT('',(4.917572450391,-6.,100.));
#484=CARTESIAN_POINT('Origin',(-25.7500000000002,-3.74999999999792,100.));
#485=CARTESIAN_POINT('',(4.917572450391,-6.,0.));
#486=CARTESIAN_POINT($,(4.917572450391,-6.,0.));
#487=CARTESIAN_POINT('Origin',(-25.7500000000002,-3.74999999999792,0.));
#488=CARTESIAN_POINT('Origin',(4.917572450391,-6.,0.));
#489=CARTESIAN_POINT('',(5.417572450391,-6.,100.));
#490=CARTESIAN_POINT($,(2.4587862251955,-6.,100.));
#491=CARTESIAN_POINT('',(5.417572450391,-6.,0.));
#492=CARTESIAN_POINT($,(5.417572450391,-6.,0.));
#493=CARTESIAN_POINT($,(2.4587862251955,-6.,0.));
#494=CARTESIAN_POINT('Origin',(5.417572450391,-6.,0.));
#495=CARTESIAN_POINT('',(4.01470224947623,-7.5,100.));
#496=CARTESIAN_POINT($,(4.71495564034739,-6.75126352700213,100.));
#497=CARTESIAN_POINT('',(4.01470224947623,-7.5,0.));
#498=CARTESIAN_POINT($,(4.01470224947623,-7.5,0.));
#499=CARTESIAN_POINT($,(4.71495564034739,-6.75126352700213,0.));
#500=CARTESIAN_POINT('Origin',(-25.7500000000002,-3.74999999999792,0.));
#501=CARTESIAN_POINT('Origin',(-25.7500000000002,-3.74999999999792,100.));
#502=CARTESIAN_POINT('Origin',(-25.7500000000002,-3.74999999999792,0.));
#503=CARTESIAN_POINT('Origin',(0.,-3.75,100.));
#504=CARTESIAN_POINT('Origin',(0.,-3.75,0.));
#505=UNCERTAINTY_MEASURE_WITH_UNIT(LENGTH_MEASURE(0.01),#507,
'DISTANCE_ACCURACY_VALUE',
'Maximum model space distance between geometric entities at asserted c
onnectivities');
#506=(
GEOMETRIC_REPRESENTATION_CONTEXT(3)
GLOBAL_UNCERTAINTY_ASSIGNED_CONTEXT((#505))
GLOBAL_UNIT_ASSIGNED_CONTEXT((#507,#510,#508))
REPRESENTATION_CONTEXT('','3D')
);
#507=(
LENGTH_UNIT()
NAMED_UNIT(*)
SI_UNIT(.MILLI.,.METRE.)
);
#508=(
NAMED_UNIT(*)
SI_UNIT($,.STERADIAN.)
SOLID_ANGLE_UNIT()
);
#509=DIMENSIONAL_EXPONENTS(0.,0.,0.,0.,0.,0.,0.);
#510=(
CONVERSION_BASED_UNIT('degree',#512)
NAMED_UNIT(#509)
PLANE_ANGLE_UNIT()
);
#511=(
NAMED_UNIT(*)
PLANE_ANGLE_UNIT()
SI_UNIT($,.RADIAN.)
);
#512=PLANE_ANGLE_MEASURE_WITH_UNIT(PLANE_ANGLE_MEASURE(0.01745329252),#511);
#513=SHAPE_DEFINITION_REPRESENTATION(#514,#515);
#514=PRODUCT_DEFINITION_SHAPE('',$,#517);
#515=SHAPE_REPRESENTATION('',(#309),#506);
#516=DESIGN_CONTEXT('3D Mechanical Parts',#520,'design');
#517=PRODUCT_DEFINITION('-230826-36','-230826-36',#518,#516);
#518=PRODUCT_DEFINITION_FORMATION('',$,#522);
#519=APPLICATION_PROTOCOL_DEFINITION('international standard',
'ap203_configuration_controlled_3d_design_of_mechanical_parts_and_asse
mblies_mim_lf',2004,#520);
#520=APPLICATION_CONTEXT(
'Configuration Controlled 3D Design of Mechanical Parts and Assemblies');
#521=MECHANICAL_CONTEXT('3D Mechanical Parts',#520,'mechanical');
#522=PRODUCT('-230826-36','-230826-36',$,(#521));
#523=PRESENTATION_STYLE_ASSIGNMENT((#524));
#524=SURFACE_STYLE_USAGE(.BOTH.,#525);
#525=SURFACE_SIDE_STYLE($,(#526));
#526=SURFACE_STYLE_FILL_AREA(#527);
#527=FILL_AREA_STYLE($,(#528));
#528=FILL_AREA_STYLE_COLOUR($,#529);
#529=COLOUR_RGB('',0.827450980392157,0.407843137254902,0.2);
ENDSEC;
END-ISO-10303-21;
