ISO-10303-21;
HEADER;
/* Generated by software containing ST-Developer
 * from STEP Tools, Inc. (www.steptools.com) 
 */

FILE_DESCRIPTION(
/* description */ ('T profil L = 1000'),
/* implementation_level */ '2;1');

FILE_NAME(
/* name */ 'C:\\Vault_pracovn\X\ED\\Zak\X\E1zky\\Kal\X\E1b_pokus\\3213
00.stp',
/* time_stamp */ '2014-08-19T08:51:47+02:00',
/* author */ ('jank'),
/* organization */ (''),
/* preprocessor_version */ 'ST-DEVELOPER v15.2',
/* originating_system */ 'Autodesk Inventor 2014',
/* authorisation */ '');

FILE_SCHEMA (('CONFIG_CONTROL_DESIGN'));
ENDSEC;

DATA;
#10=SHAPE_REPRESENTATION_RELATIONSHIP('SRR','None',#375,#11);
#11=ADVANCED_BREP_SHAPE_REPRESENTATION($,(#232),#366);
#12=STYLED_ITEM($,(#383),#232);
#13=FACE_OUTER_BOUND($,#25,.T.);
#14=FACE_OUTER_BOUND($,#26,.T.);
#15=FACE_OUTER_BOUND($,#27,.T.);
#16=FACE_OUTER_BOUND($,#28,.T.);
#17=FACE_OUTER_BOUND($,#29,.T.);
#18=FACE_OUTER_BOUND($,#30,.T.);
#19=FACE_OUTER_BOUND($,#31,.T.);
#20=FACE_OUTER_BOUND($,#32,.T.);
#21=FACE_OUTER_BOUND($,#33,.T.);
#22=FACE_OUTER_BOUND($,#34,.T.);
#23=FACE_OUTER_BOUND($,#35,.T.);
#24=FACE_OUTER_BOUND($,#36,.T.);
#25=EDGE_LOOP($,(#147,#148,#149,#150));
#26=EDGE_LOOP($,(#151,#152,#153,#154));
#27=EDGE_LOOP($,(#155,#156,#157,#158));
#28=EDGE_LOOP($,(#159,#160,#161,#162));
#29=EDGE_LOOP($,(#163,#164,#165,#166));
#30=EDGE_LOOP($,(#167,#168,#169,#170));
#31=EDGE_LOOP($,(#171,#172,#173,#174));
#32=EDGE_LOOP($,(#175,#176,#177,#178));
#33=EDGE_LOOP($,(#179,#180,#181,#182));
#34=EDGE_LOOP($,(#183,#184,#185,#186));
#35=EDGE_LOOP($,(#187,#188,#189,#190,#191,#192,#193,#194,#195,#196));
#36=EDGE_LOOP($,(#197,#198,#199,#200,#201,#202,#203,#204,#205,#206));
#37=LINE($,#306,#67);
#38=LINE($,#308,#68);
#39=LINE($,#310,#69);
#40=LINE($,#311,#70);
#41=LINE($,#314,#71);
#42=LINE($,#316,#72);
#43=LINE($,#317,#73);
#44=LINE($,#320,#74);
#45=LINE($,#322,#75);
#46=LINE($,#323,#76);
#47=LINE($,#326,#77);
#48=LINE($,#328,#78);
#49=LINE($,#329,#79);
#50=LINE($,#332,#80);
#51=LINE($,#334,#81);
#52=LINE($,#335,#82);
#53=LINE($,#338,#83);
#54=LINE($,#340,#84);
#55=LINE($,#341,#85);
#56=LINE($,#344,#86);
#57=LINE($,#346,#87);
#58=LINE($,#347,#88);
#59=LINE($,#350,#89);
#60=LINE($,#352,#90);
#61=LINE($,#353,#91);
#62=LINE($,#356,#92);
#63=LINE($,#358,#93);
#64=LINE($,#359,#94);
#65=LINE($,#361,#95);
#66=LINE($,#362,#96);
#67=VECTOR($,#250,8.20000000000005);
#68=VECTOR($,#251,100.);
#69=VECTOR($,#252,8.20000000000005);
#70=VECTOR($,#253,100.);
#71=VECTOR($,#256,3.79999999999999);
#72=VECTOR($,#257,100.);
#73=VECTOR($,#258,3.79999999999999);
#74=VECTOR($,#261,2.79999999999998);
#75=VECTOR($,#262,100.);
#76=VECTOR($,#263,2.79999999999998);
#77=VECTOR($,#266,2.2);
#78=VECTOR($,#267,100.);
#79=VECTOR($,#268,2.2);
#80=VECTOR($,#271,2.82842712474619);
#81=VECTOR($,#272,100.);
#82=VECTOR($,#273,2.82842712474619);
#83=VECTOR($,#276,9.80000000000001);
#84=VECTOR($,#277,100.);
#85=VECTOR($,#278,9.80000000000001);
#86=VECTOR($,#281,2.82842712474619);
#87=VECTOR($,#282,100.);
#88=VECTOR($,#283,2.82842712474619);
#89=VECTOR($,#286,2.2);
#90=VECTOR($,#287,100.);
#91=VECTOR($,#288,2.2);
#92=VECTOR($,#291,2.79999999999998);
#93=VECTOR($,#292,100.);
#94=VECTOR($,#293,2.79999999999998);
#95=VECTOR($,#296,3.8);
#96=VECTOR($,#297,3.8);
#97=VERTEX_POINT($,#304);
#98=VERTEX_POINT($,#305);
#99=VERTEX_POINT($,#307);
#100=VERTEX_POINT($,#309);
#101=VERTEX_POINT($,#313);
#102=VERTEX_POINT($,#315);
#103=VERTEX_POINT($,#319);
#104=VERTEX_POINT($,#321);
#105=VERTEX_POINT($,#325);
#106=VERTEX_POINT($,#327);
#107=VERTEX_POINT($,#331);
#108=VERTEX_POINT($,#333);
#109=VERTEX_POINT($,#337);
#110=VERTEX_POINT($,#339);
#111=VERTEX_POINT($,#343);
#112=VERTEX_POINT($,#345);
#113=VERTEX_POINT($,#349);
#114=VERTEX_POINT($,#351);
#115=VERTEX_POINT($,#355);
#116=VERTEX_POINT($,#357);
#117=EDGE_CURVE($,#97,#98,#37,.T.);
#118=EDGE_CURVE($,#99,#98,#38,.T.);
#119=EDGE_CURVE($,#100,#99,#39,.T.);
#120=EDGE_CURVE($,#100,#97,#40,.T.);
#121=EDGE_CURVE($,#98,#101,#41,.T.);
#122=EDGE_CURVE($,#102,#101,#42,.T.);
#123=EDGE_CURVE($,#99,#102,#43,.T.);
#124=EDGE_CURVE($,#101,#103,#44,.T.);
#125=EDGE_CURVE($,#104,#103,#45,.T.);
#126=EDGE_CURVE($,#102,#104,#46,.T.);
#127=EDGE_CURVE($,#103,#105,#47,.T.);
#128=EDGE_CURVE($,#106,#105,#48,.T.);
#129=EDGE_CURVE($,#104,#106,#49,.T.);
#130=EDGE_CURVE($,#105,#107,#50,.T.);
#131=EDGE_CURVE($,#108,#107,#51,.T.);
#132=EDGE_CURVE($,#106,#108,#52,.T.);
#133=EDGE_CURVE($,#107,#109,#53,.T.);
#134=EDGE_CURVE($,#110,#109,#54,.T.);
#135=EDGE_CURVE($,#108,#110,#55,.T.);
#136=EDGE_CURVE($,#109,#111,#56,.T.);
#137=EDGE_CURVE($,#112,#111,#57,.T.);
#138=EDGE_CURVE($,#110,#112,#58,.T.);
#139=EDGE_CURVE($,#111,#113,#59,.T.);
#140=EDGE_CURVE($,#114,#113,#60,.T.);
#141=EDGE_CURVE($,#112,#114,#61,.T.);
#142=EDGE_CURVE($,#113,#115,#62,.T.);
#143=EDGE_CURVE($,#116,#115,#63,.T.);
#144=EDGE_CURVE($,#114,#116,#64,.T.);
#145=EDGE_CURVE($,#115,#97,#65,.T.);
#146=EDGE_CURVE($,#116,#100,#66,.T.);
#147=ORIENTED_EDGE($,*,*,#117,.T.);
#148=ORIENTED_EDGE($,*,*,#118,.F.);
#149=ORIENTED_EDGE($,*,*,#119,.F.);
#150=ORIENTED_EDGE($,*,*,#120,.T.);
#151=ORIENTED_EDGE($,*,*,#121,.T.);
#152=ORIENTED_EDGE($,*,*,#122,.F.);
#153=ORIENTED_EDGE($,*,*,#123,.F.);
#154=ORIENTED_EDGE($,*,*,#118,.T.);
#155=ORIENTED_EDGE($,*,*,#124,.T.);
#156=ORIENTED_EDGE($,*,*,#125,.F.);
#157=ORIENTED_EDGE($,*,*,#126,.F.);
#158=ORIENTED_EDGE($,*,*,#122,.T.);
#159=ORIENTED_EDGE($,*,*,#127,.T.);
#160=ORIENTED_EDGE($,*,*,#128,.F.);
#161=ORIENTED_EDGE($,*,*,#129,.F.);
#162=ORIENTED_EDGE($,*,*,#125,.T.);
#163=ORIENTED_EDGE($,*,*,#130,.T.);
#164=ORIENTED_EDGE($,*,*,#131,.F.);
#165=ORIENTED_EDGE($,*,*,#132,.F.);
#166=ORIENTED_EDGE($,*,*,#128,.T.);
#167=ORIENTED_EDGE($,*,*,#133,.T.);
#168=ORIENTED_EDGE($,*,*,#134,.F.);
#169=ORIENTED_EDGE($,*,*,#135,.F.);
#170=ORIENTED_EDGE($,*,*,#131,.T.);
#171=ORIENTED_EDGE($,*,*,#136,.T.);
#172=ORIENTED_EDGE($,*,*,#137,.F.);
#173=ORIENTED_EDGE($,*,*,#138,.F.);
#174=ORIENTED_EDGE($,*,*,#134,.T.);
#175=ORIENTED_EDGE($,*,*,#139,.T.);
#176=ORIENTED_EDGE($,*,*,#140,.F.);
#177=ORIENTED_EDGE($,*,*,#141,.F.);
#178=ORIENTED_EDGE($,*,*,#137,.T.);
#179=ORIENTED_EDGE($,*,*,#142,.T.);
#180=ORIENTED_EDGE($,*,*,#143,.F.);
#181=ORIENTED_EDGE($,*,*,#144,.F.);
#182=ORIENTED_EDGE($,*,*,#140,.T.);
#183=ORIENTED_EDGE($,*,*,#145,.T.);
#184=ORIENTED_EDGE($,*,*,#120,.F.);
#185=ORIENTED_EDGE($,*,*,#146,.F.);
#186=ORIENTED_EDGE($,*,*,#143,.T.);
#187=ORIENTED_EDGE($,*,*,#133,.F.);
#188=ORIENTED_EDGE($,*,*,#130,.F.);
#189=ORIENTED_EDGE($,*,*,#127,.F.);
#190=ORIENTED_EDGE($,*,*,#124,.F.);
#191=ORIENTED_EDGE($,*,*,#121,.F.);
#192=ORIENTED_EDGE($,*,*,#117,.F.);
#193=ORIENTED_EDGE($,*,*,#145,.F.);
#194=ORIENTED_EDGE($,*,*,#142,.F.);
#195=ORIENTED_EDGE($,*,*,#139,.F.);
#196=ORIENTED_EDGE($,*,*,#136,.F.);
#197=ORIENTED_EDGE($,*,*,#135,.T.);
#198=ORIENTED_EDGE($,*,*,#138,.T.);
#199=ORIENTED_EDGE($,*,*,#141,.T.);
#200=ORIENTED_EDGE($,*,*,#144,.T.);
#201=ORIENTED_EDGE($,*,*,#146,.T.);
#202=ORIENTED_EDGE($,*,*,#119,.T.);
#203=ORIENTED_EDGE($,*,*,#123,.T.);
#204=ORIENTED_EDGE($,*,*,#126,.T.);
#205=ORIENTED_EDGE($,*,*,#129,.T.);
#206=ORIENTED_EDGE($,*,*,#132,.T.);
#207=PLANE($,#234);
#208=PLANE($,#235);
#209=PLANE($,#236);
#210=PLANE($,#237);
#211=PLANE($,#238);
#212=PLANE($,#239);
#213=PLANE($,#240);
#214=PLANE($,#241);
#215=PLANE($,#242);
#216=PLANE($,#243);
#217=PLANE($,#244);
#218=PLANE($,#245);
#219=ADVANCED_FACE($,(#13),#207,.T.);
#220=ADVANCED_FACE($,(#14),#208,.T.);
#221=ADVANCED_FACE($,(#15),#209,.T.);
#222=ADVANCED_FACE($,(#16),#210,.T.);
#223=ADVANCED_FACE($,(#17),#211,.T.);
#224=ADVANCED_FACE($,(#18),#212,.T.);
#225=ADVANCED_FACE($,(#19),#213,.T.);
#226=ADVANCED_FACE($,(#20),#214,.T.);
#227=ADVANCED_FACE($,(#21),#215,.T.);
#228=ADVANCED_FACE($,(#22),#216,.T.);
#229=ADVANCED_FACE($,(#23),#217,.T.);
#230=ADVANCED_FACE($,(#24),#218,.F.);
#231=CLOSED_SHELL($,(#219,#220,#221,#222,#223,#224,#225,#226,#227,#228,
#229,#230));
#232=MANIFOLD_SOLID_BREP('T\X2\011B\X0\leso1',#231);
#233=AXIS2_PLACEMENT_3D('placement',#302,#246,#247);
#234=AXIS2_PLACEMENT_3D($,#303,#248,#249);
#235=AXIS2_PLACEMENT_3D($,#312,#254,#255);
#236=AXIS2_PLACEMENT_3D($,#318,#259,#260);
#237=AXIS2_PLACEMENT_3D($,#324,#264,#265);
#238=AXIS2_PLACEMENT_3D($,#330,#269,#270);
#239=AXIS2_PLACEMENT_3D($,#336,#274,#275);
#240=AXIS2_PLACEMENT_3D($,#342,#279,#280);
#241=AXIS2_PLACEMENT_3D($,#348,#284,#285);
#242=AXIS2_PLACEMENT_3D($,#354,#289,#290);
#243=AXIS2_PLACEMENT_3D($,#360,#294,#295);
#244=AXIS2_PLACEMENT_3D($,#363,#298,#299);
#245=AXIS2_PLACEMENT_3D($,#364,#300,#301);
#246=DIRECTION('axis',(0.,0.,1.));
#247=DIRECTION('refdir',(1.,0.,0.));
#248=DIRECTION('center_axis',(2.03089577675332E-016,1.,0.));
#249=DIRECTION('ref_axis',(0.,0.,1.));
#250=DIRECTION($,(1.,-2.03089577675332E-016,0.));
#251=DIRECTION($,(0.,0.,1.));
#252=DIRECTION($,(1.,-2.03089577675332E-016,0.));
#253=DIRECTION($,(0.,0.,1.));
#254=DIRECTION('center_axis',(1.,0.,0.));
#255=DIRECTION('ref_axis',(0.,0.,-1.));
#256=DIRECTION($,(0.,-1.,0.));
#257=DIRECTION($,(0.,0.,1.));
#258=DIRECTION($,(0.,-1.,0.));
#259=DIRECTION('center_axis',(0.,1.,0.));
#260=DIRECTION('ref_axis',(0.,0.,1.));
#261=DIRECTION($,(1.,0.,0.));
#262=DIRECTION($,(0.,0.,1.));
#263=DIRECTION($,(1.,0.,0.));
#264=DIRECTION('center_axis',(1.,0.,0.));
#265=DIRECTION('ref_axis',(0.,0.,-1.));
#266=DIRECTION($,(0.,-1.,0.));
#267=DIRECTION($,(0.,0.,1.));
#268=DIRECTION($,(0.,-1.,0.));
#269=DIRECTION('center_axis',(0.707106781186547,-0.707106781186548,0.));
#270=DIRECTION('ref_axis',(0.,0.,-1.));
#271=DIRECTION($,(-0.707106781186548,-0.707106781186547,0.));
#272=DIRECTION($,(0.,0.,1.));
#273=DIRECTION($,(-0.707106781186548,-0.707106781186547,0.));
#274=DIRECTION('center_axis',(-1.69932095605891E-016,-1.,0.));
#275=DIRECTION('ref_axis',(0.,0.,-1.));
#276=DIRECTION($,(-1.,1.69932095605891E-016,0.));
#277=DIRECTION($,(0.,0.,1.));
#278=DIRECTION($,(-1.,1.69932095605891E-016,0.));
#279=DIRECTION('center_axis',(-0.707106781186548,-0.707106781186547,0.));
#280=DIRECTION('ref_axis',(0.,0.,1.));
#281=DIRECTION($,(-0.707106781186547,0.707106781186548,0.));
#282=DIRECTION($,(0.,0.,1.));
#283=DIRECTION($,(-0.707106781186547,0.707106781186548,0.));
#284=DIRECTION('center_axis',(-1.,0.,0.));
#285=DIRECTION('ref_axis',(0.,0.,1.));
#286=DIRECTION($,(0.,1.,0.));
#287=DIRECTION($,(0.,0.,1.));
#288=DIRECTION($,(0.,1.,0.));
#289=DIRECTION('center_axis',(0.,1.,0.));
#290=DIRECTION('ref_axis',(0.,0.,1.));
#291=DIRECTION($,(1.,0.,0.));
#292=DIRECTION($,(0.,0.,1.));
#293=DIRECTION($,(1.,0.,0.));
#294=DIRECTION('center_axis',(-1.,0.,0.));
#295=DIRECTION('ref_axis',(0.,0.,1.));
#296=DIRECTION($,(0.,1.,0.));
#297=DIRECTION($,(0.,1.,0.));
#298=DIRECTION('center_axis',(0.,0.,1.));
#299=DIRECTION('ref_axis',(1.,0.,0.));
#300=DIRECTION('center_axis',(0.,0.,1.));
#301=DIRECTION('ref_axis',(1.,0.,0.));
#302=CARTESIAN_POINT('',(0.,0.,0.));
#303=CARTESIAN_POINT('Origin',(-4.10000000000002,4.,0.));
#304=CARTESIAN_POINT('',(-4.10000000000002,4.,100.));
#305=CARTESIAN_POINT('',(4.10000000000002,4.,100.));
#306=CARTESIAN_POINT($,(-2.05000000000001,4.,100.));
#307=CARTESIAN_POINT('',(4.10000000000002,4.,0.));
#308=CARTESIAN_POINT($,(4.10000000000002,4.,0.));
#309=CARTESIAN_POINT('',(-4.10000000000002,4.,0.));
#310=CARTESIAN_POINT($,(-2.05000000000001,4.,0.));
#311=CARTESIAN_POINT($,(-4.10000000000002,4.,0.));
#312=CARTESIAN_POINT('Origin',(4.10000000000002,4.,0.));
#313=CARTESIAN_POINT('',(4.10000000000002,0.200000000000004,100.));
#314=CARTESIAN_POINT($,(4.10000000000002,2.,100.));
#315=CARTESIAN_POINT('',(4.10000000000002,0.200000000000004,0.));
#316=CARTESIAN_POINT($,(4.10000000000002,0.200000000000004,0.));
#317=CARTESIAN_POINT($,(4.10000000000002,2.,0.));
#318=CARTESIAN_POINT('Origin',(4.10000000000002,0.200000000000004,0.));
#319=CARTESIAN_POINT('',(6.9,0.200000000000004,100.));
#320=CARTESIAN_POINT($,(2.05000000000001,0.200000000000004,100.));
#321=CARTESIAN_POINT('',(6.9,0.200000000000004,0.));
#322=CARTESIAN_POINT($,(6.9,0.200000000000004,0.));
#323=CARTESIAN_POINT($,(2.05000000000001,0.200000000000004,0.));
#324=CARTESIAN_POINT('Origin',(6.9,0.200000000000004,0.));
#325=CARTESIAN_POINT('',(6.9,-2.,100.));
#326=CARTESIAN_POINT($,(6.9,0.100000000000002,100.));
#327=CARTESIAN_POINT('',(6.9,-2.,0.));
#328=CARTESIAN_POINT($,(6.9,-2.,0.));
#329=CARTESIAN_POINT($,(6.9,0.100000000000002,0.));
#330=CARTESIAN_POINT('Origin',(6.9,-2.,0.));
#331=CARTESIAN_POINT('',(4.9,-4.,100.));
#332=CARTESIAN_POINT($,(5.675,-3.225,100.));
#333=CARTESIAN_POINT('',(4.9,-4.,0.));
#334=CARTESIAN_POINT($,(4.9,-4.,0.));
#335=CARTESIAN_POINT($,(5.675,-3.225,0.));
#336=CARTESIAN_POINT('Origin',(4.9,-4.,0.));
#337=CARTESIAN_POINT('',(-4.90000000000001,-4.,100.));
#338=CARTESIAN_POINT($,(2.45,-4.,100.));
#339=CARTESIAN_POINT('',(-4.90000000000001,-4.,0.));
#340=CARTESIAN_POINT($,(-4.90000000000001,-4.,0.));
#341=CARTESIAN_POINT($,(2.45,-4.,0.));
#342=CARTESIAN_POINT('Origin',(-4.90000000000001,-4.,0.));
#343=CARTESIAN_POINT('',(-6.9,-2.,100.));
#344=CARTESIAN_POINT($,(-4.67500000000001,-4.225,100.));
#345=CARTESIAN_POINT('',(-6.9,-2.,0.));
#346=CARTESIAN_POINT($,(-6.9,-2.,0.));
#347=CARTESIAN_POINT($,(-4.67500000000001,-4.225,0.));
#348=CARTESIAN_POINT('Origin',(-6.9,-2.,0.));
#349=CARTESIAN_POINT('',(-6.9,0.200000000000004,100.));
#350=CARTESIAN_POINT($,(-6.9,-1.,100.));
#351=CARTESIAN_POINT('',(-6.9,0.200000000000004,0.));
#352=CARTESIAN_POINT($,(-6.9,0.200000000000004,0.));
#353=CARTESIAN_POINT($,(-6.9,-1.,0.));
#354=CARTESIAN_POINT('Origin',(-6.9,0.200000000000004,0.));
#355=CARTESIAN_POINT('',(-4.10000000000002,0.200000000000004,100.));
#356=CARTESIAN_POINT($,(-3.45,0.200000000000004,100.));
#357=CARTESIAN_POINT('',(-4.10000000000002,0.200000000000004,0.));
#358=CARTESIAN_POINT($,(-4.10000000000002,0.200000000000004,0.));
#359=CARTESIAN_POINT($,(-3.45,0.200000000000004,0.));
#360=CARTESIAN_POINT('Origin',(-4.10000000000002,0.200000000000004,0.));
#361=CARTESIAN_POINT($,(-4.10000000000002,0.100000000000002,100.));
#362=CARTESIAN_POINT($,(-4.10000000000002,0.100000000000002,0.));
#363=CARTESIAN_POINT('Origin',(0.,0.,100.));
#364=CARTESIAN_POINT('Origin',(0.,0.,0.));
#365=UNCERTAINTY_MEASURE_WITH_UNIT(LENGTH_MEASURE(0.01),#367,
'DISTANCE_ACCURACY_VALUE',
'Maximum model space distance between geometric entities at asserted c
onnectivities');
#366=(
GEOMETRIC_REPRESENTATION_CONTEXT(3)
GLOBAL_UNCERTAINTY_ASSIGNED_CONTEXT((#365))
GLOBAL_UNIT_ASSIGNED_CONTEXT((#367,#370,#368))
REPRESENTATION_CONTEXT('','3D')
);
#367=(
LENGTH_UNIT()
NAMED_UNIT(*)
SI_UNIT(.MILLI.,.METRE.)
);
#368=(
NAMED_UNIT(*)
SI_UNIT($,.STERADIAN.)
SOLID_ANGLE_UNIT()
);
#369=DIMENSIONAL_EXPONENTS(0.,0.,0.,0.,0.,0.,0.);
#370=(
CONVERSION_BASED_UNIT('degree',#372)
NAMED_UNIT(#369)
PLANE_ANGLE_UNIT()
);
#371=(
NAMED_UNIT(*)
PLANE_ANGLE_UNIT()
SI_UNIT($,.RADIAN.)
);
#372=PLANE_ANGLE_MEASURE_WITH_UNIT(PLANE_ANGLE_MEASURE(0.01745329252),#371);
#373=SHAPE_DEFINITION_REPRESENTATION(#374,#375);
#374=PRODUCT_DEFINITION_SHAPE('',$,#377);
#375=SHAPE_REPRESENTATION('',(#233),#366);
#376=DESIGN_CONTEXT('3D Mechanical Parts',#380,'design');
#377=PRODUCT_DEFINITION('-321300-9','-321300-9',#378,#376);
#378=PRODUCT_DEFINITION_FORMATION('',$,#382);
#379=APPLICATION_PROTOCOL_DEFINITION('international standard',
'ap203_configuration_controlled_3d_design_of_mechanical_parts_and_asse
mblies_mim_lf',2004,#380);
#380=APPLICATION_CONTEXT(
'Configuration Controlled 3D Design of Mechanical Parts and Assemblies');
#381=MECHANICAL_CONTEXT('3D Mechanical Parts',#380,'mechanical');
#382=PRODUCT('-321300-9','-321300-9',$,(#381));
#383=PRESENTATION_STYLE_ASSIGNMENT((#384));
#384=SURFACE_STYLE_USAGE(.BOTH.,#385);
#385=SURFACE_SIDE_STYLE($,(#386));
#386=SURFACE_STYLE_FILL_AREA(#387);
#387=FILL_AREA_STYLE($,(#388));
#388=FILL_AREA_STYLE_COLOUR($,#389);
#389=COLOUR_RGB('',0.87843137254902,0.874509803921569,0.858823529411765);
ENDSEC;
END-ISO-10303-21;
