ISO-10303-21;
HEADER;
/****************************************************************
 * Generated by software with PDE/Lib inside                    *
 * PDElib Version v51a, created Mon 03/22/2010                  *
 * International Technegroup Inc. (www.iti-oh.com)              *
 ****************************************************************/
FILE_DESCRIPTION((''),'2;1');
FILE_NAME('D:\\P\X2\0159\X0\evod katalogu\\P\X2\0159\X0\evod do STEP\\Modul 30\\Spojovac\S\m dopl\X2\0148\X0\ky\\323047\\323047.ipt.stp','2010-09-05T12:19:03',(''),(''),'Autodesk Inventor 2010','Autodesk Inventor 2010','');
FILE_SCHEMA(('AUTOMOTIVE_DESIGN { 1 0 10303 214 1 1 1 1 }'));
ENDSEC;
DATA;
#5=APPLICATION_CONTEXT('automotive design');
#6=APPLICATION_PROTOCOL_DEFINITION('International Standard','automotive_design',2001,#5);
#7=PRODUCT_CONTEXT('',#5,'mechanical');
#8=PRODUCT('323047','323047',$,(#7));
#9=PRODUCT_RELATED_PRODUCT_CATEGORY('part',$,(#8));
#10=PRODUCT_DEFINITION_FORMATION('',$,#8);
#11=PRODUCT_DEFINITION_CONTEXT('part definition',#5,'design');
#12=PRODUCT_DEFINITION('',$,#10,#11);
#18=(NAMED_UNIT(*)PLANE_ANGLE_UNIT()SI_UNIT($,.RADIAN.));
#19=DIMENSIONAL_EXPONENTS(0.0,0.0,0.0,0.0,0.0,0.0,0.0);
#20=PLANE_ANGLE_MEASURE_WITH_UNIT(PLANE_ANGLE_MEASURE(0.017453292500000),#18);
#24=(CONVERSION_BASED_UNIT('DEGREE',#20)NAMED_UNIT(#19)PLANE_ANGLE_UNIT());
#28=(NAMED_UNIT(*)SI_UNIT($,.STERADIAN.)SOLID_ANGLE_UNIT());
#32=(LENGTH_UNIT()NAMED_UNIT(*)SI_UNIT(.MILLI.,.METRE.));
#34=UNCERTAINTY_MEASURE_WITH_UNIT(LENGTH_MEASURE(0.010000000000000),#32,'DISTANCE_ACCURACY_VALUE','');
#36=(GEOMETRIC_REPRESENTATION_CONTEXT(3)GLOBAL_UNCERTAINTY_ASSIGNED_CONTEXT((#34))GLOBAL_UNIT_ASSIGNED_CONTEXT((#24,#28,#32))REPRESENTATION_CONTEXT('None','None'));
#37=AXIS2_PLACEMENT_3D('',#38,#39,#40);
#38=CARTESIAN_POINT('',(0.0,0.0,0.0));
#39=DIRECTION('',(0.0,0.0,1.0));
#40=DIRECTION('',(1.0,0.0,0.0));
#41=SHAPE_REPRESENTATION('',(#37),#36);
#42=PRODUCT_DEFINITION_SHAPE('','',#12);
#43=SHAPE_DEFINITION_REPRESENTATION(#42,#41);
#49=(NAMED_UNIT(*)PLANE_ANGLE_UNIT()SI_UNIT($,.RADIAN.));
#50=DIMENSIONAL_EXPONENTS(0.0,0.0,0.0,0.0,0.0,0.0,0.0);
#51=PLANE_ANGLE_MEASURE_WITH_UNIT(PLANE_ANGLE_MEASURE(0.017453292500000),#49);
#55=(CONVERSION_BASED_UNIT('DEGREE',#51)NAMED_UNIT(#50)PLANE_ANGLE_UNIT());
#59=(NAMED_UNIT(*)SI_UNIT($,.STERADIAN.)SOLID_ANGLE_UNIT());
#63=(LENGTH_UNIT()NAMED_UNIT(*)SI_UNIT(.MILLI.,.METRE.));
#65=UNCERTAINTY_MEASURE_WITH_UNIT(LENGTH_MEASURE(0.000001000000000),#63,'DISTANCE_ACCURACY_VALUE','');
#67=(GEOMETRIC_REPRESENTATION_CONTEXT(3)GLOBAL_UNCERTAINTY_ASSIGNED_CONTEXT((#65))GLOBAL_UNIT_ASSIGNED_CONTEXT((#55,#59,#63))REPRESENTATION_CONTEXT('','3D'));
#68=CARTESIAN_POINT('',(1.999999999999998,5.500000000000004,8.500000000000000));
#69=CARTESIAN_POINT('',(12.999999999999998,5.500000000000004,8.500000000000000));
#70=CARTESIAN_POINT('',(1.999999999999998,-5.499999999999996,8.500000000000000));
#71=CARTESIAN_POINT('',(12.999999999999998,-5.499999999999996,8.500000000000000));
#72=B_SPLINE_SURFACE_WITH_KNOTS('',1,1,((#68,#70),(#69,#71)),.UNSPECIFIED.,.F.,.F.,.U.,(2,2),(2,2),(0.0,11.0),(0.0,11.0),.UNSPECIFIED.);
#73=CARTESIAN_POINT('',(12.999999999999998,3.885781E-015,8.500000000000000));
#74=VERTEX_POINT('',#73);
#75=CARTESIAN_POINT('',(7.499999999999998,3.885781E-015,8.500000000000000));
#76=DIRECTION('',(0.0,0.0,1.0));
#77=DIRECTION('',(1.0,0.0,0.0));
#78=AXIS2_PLACEMENT_3D('',#75,#76,#77);
#79=CIRCLE('',#78,5.500000000000000);
#80=EDGE_CURVE('',#74,#74,#79,.T.);
#81=ORIENTED_EDGE('',*,*,#80,.T.);
#82=EDGE_LOOP('',(#81));
#83=FACE_OUTER_BOUND('',#82,.T.);
#84=CARTESIAN_POINT('',(4.249999999999997,3.487784E-015,8.500000000000000));
#85=VERTEX_POINT('',#84);
#86=CARTESIAN_POINT('',(7.499999999999998,3.885781E-015,8.500000000000000));
#87=DIRECTION('',(0.0,0.0,1.0));
#88=DIRECTION('',(1.0,0.0,0.0));
#89=AXIS2_PLACEMENT_3D('',#86,#87,#88);
#90=CIRCLE('',#89,3.250000000000000);
#91=EDGE_CURVE('',#85,#85,#90,.T.);
#92=ORIENTED_EDGE('',*,*,#91,.F.);
#93=EDGE_LOOP('',(#92));
#94=FACE_BOUND('',#93,.T.);
#95=ADVANCED_FACE('',(#83,#94),#72,.F.);
#96=CARTESIAN_POINT('',(1.999999999999998,3.212225E-015,15.0));
#97=CARTESIAN_POINT('',(1.999999999999998,3.212225E-015,8.500000000000000));
#98=CARTESIAN_POINT('',(2.0,-5.499999999999996,15.0));
#99=CARTESIAN_POINT('',(2.0,-5.499999999999996,8.500000000000000));
#100=CARTESIAN_POINT('',(7.499999999999999,-5.499999999999996,15.0));
#101=CARTESIAN_POINT('',(7.499999999999999,-5.499999999999996,8.500000000000000));
#102=CARTESIAN_POINT('',(12.999999999999998,-5.499999999999995,15.0));
#103=CARTESIAN_POINT('',(12.999999999999998,-5.499999999999995,8.500000000000000));
#104=CARTESIAN_POINT('',(12.999999999999998,4.559336E-015,15.0));
#105=CARTESIAN_POINT('',(12.999999999999998,4.559336E-015,8.500000000000000));
#106=CARTESIAN_POINT('',(12.999999999999996,5.500000000000004,15.0));
#107=CARTESIAN_POINT('',(12.999999999999996,5.500000000000004,8.500000000000000));
#108=CARTESIAN_POINT('',(7.499999999999997,5.500000000000004,15.0));
#109=CARTESIAN_POINT('',(7.499999999999997,5.500000000000004,8.500000000000000));
#110=CARTESIAN_POINT('',(1.999999999999998,5.500000000000002,15.0));
#111=CARTESIAN_POINT('',(1.999999999999998,5.500000000000002,8.500000000000000));
#112=CARTESIAN_POINT('',(1.999999999999998,3.212225E-015,15.0));
#113=CARTESIAN_POINT('',(1.999999999999998,3.212225E-015,8.500000000000000));
#121=(BOUNDED_SURFACE()B_SPLINE_SURFACE(1,2,((#96,#98,#100,#102,#104,#106,#108,#110,#112),(#97,#99,#101,#103,#105,#107,#109,#111,#113)),.UNSPECIFIED.,.F.,.T.,.U.)B_SPLINE_SURFACE_WITH_KNOTS((2,2),(3,2,2,2,3),(-0.590909090909091,0.590909090909091),(0.0,8.639379797371930,17.278759594743860,25.918139392115794,34.557519189487721),.UNSPECIFIED.)GEOMETRIC_REPRESENTATION_ITEM()RATIONAL_B_SPLINE_SURFACE(((1.0,0.707106781186548,1.0,0.707106781186548,1.0,0.707106781186548,1.0,0.707106781186548,1.0),(1.0,0.707106781186548,1.0,0.707106781186548,1.0,0.707106781186548,1.0,0.707106781186548,1.0)))REPRESENTATION_ITEM('')SURFACE());
#122=CARTESIAN_POINT('',(12.999999999999998,3.885781E-015,15.0));
#123=VERTEX_POINT('',#122);
#124=CARTESIAN_POINT('',(7.499999999999998,3.885781E-015,15.0));
#125=DIRECTION('',(0.0,0.0,-1.0));
#126=DIRECTION('',(1.0,0.0,0.0));
#127=AXIS2_PLACEMENT_3D('',#124,#125,#126);
#128=CIRCLE('',#127,5.500000000000000);
#129=EDGE_CURVE('',#123,#123,#128,.T.);
#130=ORIENTED_EDGE('',*,*,#129,.F.);
#131=EDGE_LOOP('',(#130));
#132=FACE_OUTER_BOUND('',#131,.T.);
#133=ORIENTED_EDGE('',*,*,#80,.F.);
#134=EDGE_LOOP('',(#133));
#135=FACE_BOUND('',#134,.T.);
#136=ADVANCED_FACE('',(#132,#135),#121,.F.);
#137=CARTESIAN_POINT('',(4.249999999999998,3.487770E-015,8.499999999999996));
#138=CARTESIAN_POINT('',(4.249999999999998,3.487770E-015,0.0));
#139=CARTESIAN_POINT('',(4.249999999999999,-3.249999999999995,8.499999999999996));
#140=CARTESIAN_POINT('',(4.249999999999999,-3.249999999999995,0.0));
#141=CARTESIAN_POINT('',(7.499999999999998,-3.249999999999996,8.499999999999996));
#142=CARTESIAN_POINT('',(7.499999999999998,-3.249999999999996,0.0));
#143=CARTESIAN_POINT('',(10.749999999999996,-3.249999999999995,8.499999999999996));
#144=CARTESIAN_POINT('',(10.749999999999996,-3.249999999999995,0.0));
#145=CARTESIAN_POINT('',(10.749999999999998,4.283791E-015,8.499999999999996));
#146=CARTESIAN_POINT('',(10.749999999999998,4.283791E-015,0.0));
#147=CARTESIAN_POINT('',(10.749999999999996,3.250000000000004,8.499999999999996));
#148=CARTESIAN_POINT('',(10.749999999999996,3.250000000000004,0.0));
#149=CARTESIAN_POINT('',(7.499999999999998,3.250000000000004,8.499999999999996));
#150=CARTESIAN_POINT('',(7.499999999999998,3.250000000000004,0.0));
#151=CARTESIAN_POINT('',(4.249999999999999,3.250000000000003,8.499999999999996));
#152=CARTESIAN_POINT('',(4.249999999999999,3.250000000000003,0.0));
#153=CARTESIAN_POINT('',(4.249999999999998,3.487770E-015,8.499999999999996));
#154=CARTESIAN_POINT('',(4.249999999999998,3.487770E-015,0.0));
#162=(BOUNDED_SURFACE()B_SPLINE_SURFACE(1,2,((#137,#139,#141,#143,#145,#147,#149,#151,#153),(#138,#140,#142,#144,#146,#148,#150,#152,#154)),.UNSPECIFIED.,.F.,.T.,.U.)B_SPLINE_SURFACE_WITH_KNOTS((2,2),(3,2,2,2,3),(-8.878565864408428,-6.263181249023813),(0.0,5.105088062083414,10.210176124166829,15.315264186250241,20.420352248333657),.UNSPECIFIED.)GEOMETRIC_REPRESENTATION_ITEM()RATIONAL_B_SPLINE_SURFACE(((1.0,0.707106781186548,1.0,0.707106781186548,1.0,0.707106781186548,1.0,0.707106781186548,1.0),(1.0,0.707106781186548,1.0,0.707106781186548,1.0,0.707106781186548,1.0,0.707106781186548,1.0)))REPRESENTATION_ITEM('')SURFACE());
#163=CARTESIAN_POINT('',(4.249999999999997,3.487784E-015,0.0));
#164=VERTEX_POINT('',#163);
#165=CARTESIAN_POINT('',(7.499999999999998,3.885781E-015,0.0));
#166=DIRECTION('',(0.0,0.0,1.0));
#167=DIRECTION('',(1.0,0.0,0.0));
#168=AXIS2_PLACEMENT_3D('',#165,#166,#167);
#169=CIRCLE('',#168,3.250000000000000);
#170=EDGE_CURVE('',#164,#164,#169,.T.);
#171=ORIENTED_EDGE('',*,*,#170,.F.);
#172=EDGE_LOOP('',(#171));
#173=FACE_OUTER_BOUND('',#172,.T.);
#174=ORIENTED_EDGE('',*,*,#91,.T.);
#175=EDGE_LOOP('',(#174));
#176=FACE_BOUND('',#175,.T.);
#177=ADVANCED_FACE('',(#173,#176),#162,.F.);
#178=CARTESIAN_POINT('',(20.000000000000004,-12.499999999999996,10.500000000000000));
#179=DIRECTION('',(0.0,0.0,1.0));
#180=DIRECTION('',(1.0,0.0,0.0));
#181=AXIS2_PLACEMENT_3D('',#178,#179,#180);
#182=PLANE('',#181);
#183=CARTESIAN_POINT('',(20.000000000000004,12.500000000000004,10.500000000000000));
#184=VERTEX_POINT('',#183);
#185=CARTESIAN_POINT('',(18.000000000000004,12.500000000000004,10.500000000000000));
#186=VERTEX_POINT('',#185);
#187=CARTESIAN_POINT('',(20.000000000000004,12.500000000000012,10.500000000000000));
#188=DIRECTION('',(-1.0,0.0,0.0));
#189=VECTOR('',#188,2.0);
#190=LINE('',#187,#189);
#191=EDGE_CURVE('',#184,#186,#190,.T.);
#192=ORIENTED_EDGE('',*,*,#191,.F.);
#193=CARTESIAN_POINT('',(20.000000000000004,-12.499999999999996,10.500000000000000));
#194=VERTEX_POINT('',#193);
#195=CARTESIAN_POINT('',(20.000000000000004,-12.499999999999995,10.500000000000000));
#196=DIRECTION('',(0.0,1.0,0.0));
#197=VECTOR('',#196,25.0);
#198=LINE('',#195,#197);
#199=EDGE_CURVE('',#194,#184,#198,.T.);
#200=ORIENTED_EDGE('',*,*,#199,.F.);
#201=CARTESIAN_POINT('',(18.000000000000004,-12.499999999999996,10.500000000000000));
#202=VERTEX_POINT('',#201);
#203=CARTESIAN_POINT('',(18.000000000000004,-12.499999999999996,10.500000000000000));
#204=DIRECTION('',(1.0,0.0,0.0));
#205=VECTOR('',#204,2.0);
#206=LINE('',#203,#205);
#207=EDGE_CURVE('',#202,#194,#206,.T.);
#208=ORIENTED_EDGE('',*,*,#207,.F.);
#209=CARTESIAN_POINT('',(18.000000000000004,-12.499999999999996,10.500000000000000));
#210=DIRECTION('',(0.0,1.0,0.0));
#211=VECTOR('',#210,25.0);
#212=LINE('',#209,#211);
#213=EDGE_CURVE('',#202,#186,#212,.T.);
#214=ORIENTED_EDGE('',*,*,#213,.T.);
#215=EDGE_LOOP('',(#192,#200,#208,#214));
#216=FACE_OUTER_BOUND('',#215,.T.);
#217=ADVANCED_FACE('',(#216),#182,.F.);
#218=CARTESIAN_POINT('',(18.000000000000004,-12.499999999999996,10.500000000000000));
#219=DIRECTION('',(1.0,0.0,0.0));
#220=DIRECTION('',(0.0,0.0,-1.0));
#221=AXIS2_PLACEMENT_3D('',#218,#219,#220);
#222=PLANE('',#221);
#223=CARTESIAN_POINT('',(18.000000000000004,12.500000000000004,11.500000000000002));
#224=VERTEX_POINT('',#223);
#225=CARTESIAN_POINT('',(18.000000000000004,12.500000000000011,10.500000000000000));
#226=DIRECTION('',(0.0,0.0,1.0));
#227=VECTOR('',#226,1.0);
#228=LINE('',#225,#227);
#229=EDGE_CURVE('',#186,#224,#228,.T.);
#230=ORIENTED_EDGE('',*,*,#229,.F.);
#231=ORIENTED_EDGE('',*,*,#213,.F.);
#232=CARTESIAN_POINT('',(18.000000000000004,-12.499999999999996,11.500000000000002));
#233=VERTEX_POINT('',#232);
#234=CARTESIAN_POINT('',(18.000000000000004,-12.499999999999996,11.500000000000000));
#235=DIRECTION('',(0.0,0.0,-1.0));
#236=VECTOR('',#235,1.0);
#237=LINE('',#234,#236);
#238=EDGE_CURVE('',#233,#202,#237,.T.);
#239=ORIENTED_EDGE('',*,*,#238,.F.);
#240=CARTESIAN_POINT('',(18.000000000000004,-12.499999999999996,11.500000000000002));
#241=DIRECTION('',(0.0,1.0,0.0));
#242=VECTOR('',#241,25.0);
#243=LINE('',#240,#242);
#244=EDGE_CURVE('',#233,#224,#243,.T.);
#245=ORIENTED_EDGE('',*,*,#244,.T.);
#246=EDGE_LOOP('',(#230,#231,#239,#245));
#247=FACE_OUTER_BOUND('',#246,.T.);
#248=ADVANCED_FACE('',(#247),#222,.F.);
#249=CARTESIAN_POINT('',(18.000000000000004,-12.499999999999996,11.500000000000002));
#250=DIRECTION('',(0.0,0.0,1.0));
#251=DIRECTION('',(1.0,0.0,0.0));
#252=AXIS2_PLACEMENT_3D('',#249,#250,#251);
#253=PLANE('',#252);
#254=CARTESIAN_POINT('',(15.000000000000004,12.500000000000004,11.500000000000002));
#255=VERTEX_POINT('',#254);
#256=CARTESIAN_POINT('',(18.000000000000007,12.500000000000012,11.500000000000002));
#257=DIRECTION('',(-1.0,0.0,0.0));
#258=VECTOR('',#257,3.000000000000002);
#259=LINE('',#256,#258);
#260=EDGE_CURVE('',#224,#255,#259,.T.);
#261=ORIENTED_EDGE('',*,*,#260,.F.);
#262=ORIENTED_EDGE('',*,*,#244,.F.);
#263=CARTESIAN_POINT('',(15.000000000000004,-12.499999999999996,11.500000000000002));
#264=VERTEX_POINT('',#263);
#265=CARTESIAN_POINT('',(15.000000000000004,-12.499999999999996,11.500000000000002));
#266=DIRECTION('',(1.0,0.0,0.0));
#267=VECTOR('',#266,3.0);
#268=LINE('',#265,#267);
#269=EDGE_CURVE('',#264,#233,#268,.T.);
#270=ORIENTED_EDGE('',*,*,#269,.F.);
#271=CARTESIAN_POINT('',(15.000000000000004,-12.499999999999996,11.500000000000002));
#272=DIRECTION('',(0.0,1.0,0.0));
#273=VECTOR('',#272,25.0);
#274=LINE('',#271,#273);
#275=EDGE_CURVE('',#264,#255,#274,.T.);
#276=ORIENTED_EDGE('',*,*,#275,.T.);
#277=EDGE_LOOP('',(#261,#262,#270,#276));
#278=FACE_OUTER_BOUND('',#277,.T.);
#279=ADVANCED_FACE('',(#278),#253,.F.);
#280=CARTESIAN_POINT('',(15.000000000000004,-12.499999999999996,11.500000000000002));
#281=DIRECTION('',(-1.0,0.0,0.0));
#282=DIRECTION('',(0.0,0.0,1.0));
#283=AXIS2_PLACEMENT_3D('',#280,#281,#282);
#284=PLANE('',#283);
#285=CARTESIAN_POINT('',(15.000000000000004,12.500000000000004,0.0));
#286=VERTEX_POINT('',#285);
#287=CARTESIAN_POINT('',(15.000000000000004,12.500000000000009,11.500000000000002));
#288=DIRECTION('',(0.0,0.0,-1.0));
#289=VECTOR('',#288,11.500000000000002);
#290=LINE('',#287,#289);
#291=EDGE_CURVE('',#255,#286,#290,.T.);
#292=ORIENTED_EDGE('',*,*,#291,.F.);
#293=ORIENTED_EDGE('',*,*,#275,.F.);
#294=CARTESIAN_POINT('',(15.000000000000004,-12.499999999999996,0.0));
#295=VERTEX_POINT('',#294);
#296=CARTESIAN_POINT('',(15.000000000000004,-12.499999999999996,0.0));
#297=DIRECTION('',(0.0,0.0,1.0));
#298=VECTOR('',#297,11.500000000000002);
#299=LINE('',#296,#298);
#300=EDGE_CURVE('',#295,#264,#299,.T.);
#301=ORIENTED_EDGE('',*,*,#300,.F.);
#302=CARTESIAN_POINT('',(15.000000000000004,12.500000000000004,0.0));
#303=DIRECTION('',(0.0,-1.0,0.0));
#304=VECTOR('',#303,25.0);
#305=LINE('',#302,#304);
#306=EDGE_CURVE('',#286,#295,#305,.T.);
#307=ORIENTED_EDGE('',*,*,#306,.F.);
#308=EDGE_LOOP('',(#292,#293,#301,#307));
#309=FACE_OUTER_BOUND('',#308,.T.);
#310=ADVANCED_FACE('',(#309),#284,.F.);
#311=CARTESIAN_POINT('',(20.000000000000004,-12.499999999999996,0.0));
#312=DIRECTION('',(0.0,-1.0,0.0));
#313=DIRECTION('',(0.0,0.0,-1.0));
#314=AXIS2_PLACEMENT_3D('',#311,#312,#313);
#315=PLANE('',#314);
#316=ORIENTED_EDGE('',*,*,#300,.T.);
#317=ORIENTED_EDGE('',*,*,#269,.T.);
#318=ORIENTED_EDGE('',*,*,#238,.T.);
#319=ORIENTED_EDGE('',*,*,#207,.T.);
#320=CARTESIAN_POINT('',(20.000000000000004,-12.499999999999996,15.0));
#321=VERTEX_POINT('',#320);
#322=CARTESIAN_POINT('',(20.000000000000004,-12.499999999999996,10.500000000000000));
#323=DIRECTION('',(0.0,0.0,1.0));
#324=VECTOR('',#323,4.500000000000000);
#325=LINE('',#322,#324);
#326=EDGE_CURVE('',#194,#321,#325,.T.);
#327=ORIENTED_EDGE('',*,*,#326,.T.);
#328=CARTESIAN_POINT('',(3.827021E-015,-12.499999999999996,15.0));
#329=VERTEX_POINT('',#328);
#330=CARTESIAN_POINT('',(20.000000000000004,-12.499999999999996,15.0));
#331=DIRECTION('',(-1.0,0.0,0.0));
#332=VECTOR('',#331,20.0);
#333=LINE('',#330,#332);
#334=EDGE_CURVE('',#321,#329,#333,.T.);
#335=ORIENTED_EDGE('',*,*,#334,.T.);
#336=CARTESIAN_POINT('',(3.827021E-015,-12.499999999999996,0.0));
#337=VERTEX_POINT('',#336);
#338=CARTESIAN_POINT('',(3.827021E-015,-12.499999999999996,0.0));
#339=DIRECTION('',(0.0,0.0,1.0));
#340=VECTOR('',#339,15.0);
#341=LINE('',#338,#340);
#342=EDGE_CURVE('',#337,#329,#341,.T.);
#343=ORIENTED_EDGE('',*,*,#342,.F.);
#344=CARTESIAN_POINT('',(3.827021E-015,-12.499999999999996,0.0));
#345=DIRECTION('',(1.0,0.0,0.0));
#346=VECTOR('',#345,15.0);
#347=LINE('',#344,#346);
#348=EDGE_CURVE('',#337,#295,#347,.T.);
#349=ORIENTED_EDGE('',*,*,#348,.T.);
#350=EDGE_LOOP('',(#316,#317,#318,#319,#327,#335,#343,#349));
#351=FACE_OUTER_BOUND('',#350,.T.);
#352=ADVANCED_FACE('',(#351),#315,.T.);
#353=CARTESIAN_POINT('',(19.999999999999993,12.500000000000014,0.0));
#354=DIRECTION('',(1.0,0.0,0.0));
#355=DIRECTION('',(0.0,0.0,-1.0));
#356=AXIS2_PLACEMENT_3D('',#353,#354,#355);
#357=PLANE('',#356);
#358=ORIENTED_EDGE('',*,*,#199,.T.);
#359=CARTESIAN_POINT('',(19.999999999999993,12.500000000000014,15.0));
#360=VERTEX_POINT('',#359);
#361=CARTESIAN_POINT('',(19.999999999999993,12.500000000000014,10.500000000000000));
#362=DIRECTION('',(0.0,0.0,1.0));
#363=VECTOR('',#362,4.500000000000000);
#364=LINE('',#361,#363);
#365=EDGE_CURVE('',#184,#360,#364,.T.);
#366=ORIENTED_EDGE('',*,*,#365,.T.);
#367=CARTESIAN_POINT('',(19.999999999999989,12.500000000000011,15.0));
#368=DIRECTION('',(0.0,-1.0,0.0));
#369=VECTOR('',#368,25.000000000000007);
#370=LINE('',#367,#369);
#371=EDGE_CURVE('',#360,#321,#370,.T.);
#372=ORIENTED_EDGE('',*,*,#371,.T.);
#373=ORIENTED_EDGE('',*,*,#326,.F.);
#374=EDGE_LOOP('',(#358,#366,#372,#373));
#375=FACE_OUTER_BOUND('',#374,.T.);
#376=ADVANCED_FACE('',(#375),#357,.T.);
#377=CARTESIAN_POINT('',(3.827021E-015,-12.499999999999996,0.0));
#378=DIRECTION('',(-1.0,0.0,0.0));
#379=DIRECTION('',(0.0,0.0,1.0));
#380=AXIS2_PLACEMENT_3D('',#377,#378,#379);
#381=PLANE('',#380);
#382=CARTESIAN_POINT('',(-8.419447E-015,12.499999999999996,15.0));
#383=VERTEX_POINT('',#382);
#384=CARTESIAN_POINT('',(3.827021E-015,-12.499999999999996,15.0));
#385=DIRECTION('',(0.0,1.0,0.0));
#386=VECTOR('',#385,24.999999999999993);
#387=LINE('',#384,#386);
#388=EDGE_CURVE('',#329,#383,#387,.T.);
#389=ORIENTED_EDGE('',*,*,#388,.T.);
#390=CARTESIAN_POINT('',(-8.419447E-015,12.499999999999996,0.0));
#391=VERTEX_POINT('',#390);
#392=CARTESIAN_POINT('',(-8.419447E-015,12.499999999999996,0.0));
#393=DIRECTION('',(0.0,0.0,1.0));
#394=VECTOR('',#393,15.0);
#395=LINE('',#392,#394);
#396=EDGE_CURVE('',#391,#383,#395,.T.);
#397=ORIENTED_EDGE('',*,*,#396,.F.);
#398=CARTESIAN_POINT('',(-8.419447E-015,12.499999999999996,0.0));
#399=DIRECTION('',(0.0,-1.0,0.0));
#400=VECTOR('',#399,24.999999999999993);
#401=LINE('',#398,#400);
#402=EDGE_CURVE('',#391,#337,#401,.T.);
#403=ORIENTED_EDGE('',*,*,#402,.T.);
#404=ORIENTED_EDGE('',*,*,#342,.T.);
#405=EDGE_LOOP('',(#389,#397,#403,#404));
#406=FACE_OUTER_BOUND('',#405,.T.);
#407=ADVANCED_FACE('',(#406),#381,.T.);
#408=CARTESIAN_POINT('',(-8.419447E-015,12.499999999999996,0.0));
#409=DIRECTION('',(0.0,1.0,0.0));
#410=DIRECTION('',(0.0,0.0,1.0));
#411=AXIS2_PLACEMENT_3D('',#408,#409,#410);
#412=PLANE('',#411);
#413=ORIENTED_EDGE('',*,*,#291,.T.);
#414=CARTESIAN_POINT('',(15.000000000000007,12.500000000000011,0.0));
#415=DIRECTION('',(-1.0,0.0,0.0));
#416=VECTOR('',#415,15.000000000000014);
#417=LINE('',#414,#416);
#418=EDGE_CURVE('',#286,#391,#417,.T.);
#419=ORIENTED_EDGE('',*,*,#418,.T.);
#420=ORIENTED_EDGE('',*,*,#396,.T.);
#421=CARTESIAN_POINT('',(-7.105427E-015,12.499999999999996,15.0));
#422=DIRECTION('',(1.0,0.0,0.0));
#423=VECTOR('',#422,20.0);
#424=LINE('',#421,#423);
#425=EDGE_CURVE('',#383,#360,#424,.T.);
#426=ORIENTED_EDGE('',*,*,#425,.T.);
#427=ORIENTED_EDGE('',*,*,#365,.F.);
#428=ORIENTED_EDGE('',*,*,#191,.T.);
#429=ORIENTED_EDGE('',*,*,#229,.T.);
#430=ORIENTED_EDGE('',*,*,#260,.T.);
#431=EDGE_LOOP('',(#413,#419,#420,#426,#427,#428,#429,#430));
#432=FACE_OUTER_BOUND('',#431,.T.);
#433=ADVANCED_FACE('',(#432),#412,.T.);
#434=CARTESIAN_POINT('',(10.0,3.801673E-015,0.0));
#435=DIRECTION('',(0.0,0.0,1.0));
#436=DIRECTION('',(1.0,0.0,0.0));
#437=AXIS2_PLACEMENT_3D('',#434,#435,#436);
#438=PLANE('',#437);
#439=ORIENTED_EDGE('',*,*,#306,.T.);
#440=ORIENTED_EDGE('',*,*,#348,.F.);
#441=ORIENTED_EDGE('',*,*,#402,.F.);
#442=ORIENTED_EDGE('',*,*,#418,.F.);
#443=EDGE_LOOP('',(#439,#440,#441,#442));
#444=FACE_OUTER_BOUND('',#443,.T.);
#445=ORIENTED_EDGE('',*,*,#170,.T.);
#446=EDGE_LOOP('',(#445));
#447=FACE_BOUND('',#446,.T.);
#448=ADVANCED_FACE('',(#444,#447),#438,.F.);
#449=CARTESIAN_POINT('',(9.999999999999998,3.885781E-015,15.0));
#450=DIRECTION('',(0.0,0.0,1.0));
#451=DIRECTION('',(1.0,0.0,0.0));
#452=AXIS2_PLACEMENT_3D('',#449,#450,#451);
#453=PLANE('',#452);
#454=ORIENTED_EDGE('',*,*,#388,.F.);
#455=ORIENTED_EDGE('',*,*,#334,.F.);
#456=ORIENTED_EDGE('',*,*,#371,.F.);
#457=ORIENTED_EDGE('',*,*,#425,.F.);
#458=EDGE_LOOP('',(#454,#455,#456,#457));
#459=FACE_OUTER_BOUND('',#458,.T.);
#460=ORIENTED_EDGE('',*,*,#129,.T.);
#461=EDGE_LOOP('',(#460));
#462=FACE_BOUND('',#461,.T.);
#463=ADVANCED_FACE('',(#459,#462),#453,.T.);
#464=CLOSED_SHELL('',(#95,#136,#177,#217,#248,#279,#310,#352,#376,#407,#433,#448,#463));
#465=MANIFOLD_SOLID_BREP('T\X2\011B\X0\leso1',#464);
#466=COLOUR_RGB('Kov-AL-6061 (matn\X2\FFFD\X0\)',0.847059011459351,0.839215993881226,0.839215993881226);
#467=FILL_AREA_STYLE_COLOUR('Kov-AL-6061 (matn\X2\FFFD\X0\)',#466);
#468=FILL_AREA_STYLE('Kov-AL-6061 (matn\X2\FFFD\X0\)',(#467));
#469=SURFACE_STYLE_FILL_AREA(#468);
#470=SURFACE_SIDE_STYLE('Kov-AL-6061 (matn\X2\FFFD\X0\)',(#469));
#471=SURFACE_STYLE_USAGE(.BOTH.,#470);
#472=PRESENTATION_STYLE_ASSIGNMENT((#471));
#473=STYLED_ITEM('',(#472),#465);
#474=MECHANICAL_DESIGN_GEOMETRIC_PRESENTATION_REPRESENTATION('',(#473),#36);
#475=ADVANCED_BREP_SHAPE_REPRESENTATION('ABSR',(#465),#36);
#476=SHAPE_REPRESENTATION_RELATIONSHIP('SRR','None',#475,#41);
ENDSEC;
END-ISO-10303-21;
