ISO-10303-21;
HEADER;
/* Generated by software containing ST-Developer
 * from STEP Tools, Inc. (www.steptools.com) 
 */

FILE_DESCRIPTION(
/* description */ ('Pozi\X2\010D\X0\n\X\ED spojka'),
/* implementation_level */ '2;1');

FILE_NAME(
/* name */ 'D:\\Work\\Zakazky\\2013\\AlutecKK\\stp\\324047.stp',
/* time_stamp */ '2014-01-05T18:49:19+01:00',
/* author */ ('AlutecKK'),
/* organization */ (''),
/* preprocessor_version */ 'ST-DEVELOPER v15.2',
/* originating_system */ 'Autodesk Inventor 2014',
/* authorisation */ '');

FILE_SCHEMA (('AUTOMOTIVE_DESIGN { 1 0 10303 214 3 1 1 }'));
ENDSEC;

DATA;
#10=SHAPE_REPRESENTATION_RELATIONSHIP('SRR','None',#383,#11);
#11=ADVANCED_BREP_SHAPE_REPRESENTATION($,(#232),#374);
#12=STYLED_ITEM($,(#391),#232);
#13=LINE($,#326,#37);
#14=LINE($,#328,#38);
#15=LINE($,#330,#39);
#16=LINE($,#332,#40);
#17=LINE($,#334,#41);
#18=LINE($,#336,#42);
#19=LINE($,#338,#43);
#20=LINE($,#339,#44);
#21=LINE($,#343,#45);
#22=LINE($,#344,#46);
#23=LINE($,#345,#47);
#24=LINE($,#348,#48);
#25=LINE($,#349,#49);
#26=LINE($,#352,#50);
#27=LINE($,#353,#51);
#28=LINE($,#356,#52);
#29=LINE($,#357,#53);
#30=LINE($,#360,#54);
#31=LINE($,#361,#55);
#32=LINE($,#364,#56);
#33=LINE($,#365,#57);
#34=LINE($,#368,#58);
#35=LINE($,#369,#59);
#36=LINE($,#371,#60);
#37=VECTOR($,#269,15.5);
#38=VECTOR($,#270,5.);
#39=VECTOR($,#271,1.);
#40=VECTOR($,#272,3.);
#41=VECTOR($,#273,7.5);
#42=VECTOR($,#274,25.);
#43=VECTOR($,#275,22.);
#44=VECTOR($,#276,17.);
#45=VECTOR($,#279,1.);
#46=VECTOR($,#280,36.);
#47=VECTOR($,#281,36.);
#48=VECTOR($,#284,3.);
#49=VECTOR($,#285,36.);
#50=VECTOR($,#288,7.5);
#51=VECTOR($,#289,36.);
#52=VECTOR($,#292,25.);
#53=VECTOR($,#293,36.);
#54=VECTOR($,#296,22.);
#55=VECTOR($,#297,36.);
#56=VECTOR($,#300,17.);
#57=VECTOR($,#301,36.);
#58=VECTOR($,#304,15.5);
#59=VECTOR($,#305,36.);
#60=VECTOR($,#308,5.);
#61=CYLINDRICAL_SURFACE($,#237,6.75);
#62=CYLINDRICAL_SURFACE($,#239,4.25);
#63=FACE_BOUND($,#82,.T.);
#64=FACE_BOUND($,#84,.T.);
#65=FACE_BOUND($,#86,.T.);
#66=FACE_BOUND($,#91,.T.);
#67=FACE_BOUND($,#92,.T.);
#68=FACE_BOUND($,#94,.T.);
#69=FACE_BOUND($,#95,.T.);
#70=FACE_OUTER_BOUND($,#81,.T.);
#71=FACE_OUTER_BOUND($,#83,.T.);
#72=FACE_OUTER_BOUND($,#85,.T.);
#73=FACE_OUTER_BOUND($,#87,.T.);
#74=FACE_OUTER_BOUND($,#88,.T.);
#75=FACE_OUTER_BOUND($,#89,.T.);
#76=FACE_OUTER_BOUND($,#90,.T.);
#77=FACE_OUTER_BOUND($,#93,.T.);
#78=FACE_OUTER_BOUND($,#96,.T.);
#79=FACE_OUTER_BOUND($,#97,.T.);
#80=FACE_OUTER_BOUND($,#98,.T.);
#81=EDGE_LOOP($,(#151));
#82=EDGE_LOOP($,(#152));
#83=EDGE_LOOP($,(#153));
#84=EDGE_LOOP($,(#154));
#85=EDGE_LOOP($,(#155));
#86=EDGE_LOOP($,(#156));
#87=EDGE_LOOP($,(#157,#158,#159,#160,#161,#162,#163,#164));
#88=EDGE_LOOP($,(#165,#166,#167,#168));
#89=EDGE_LOOP($,(#169,#170,#171,#172));
#90=EDGE_LOOP($,(#173,#174,#175,#176));
#91=EDGE_LOOP($,(#177));
#92=EDGE_LOOP($,(#178,#179,#180,#181));
#93=EDGE_LOOP($,(#182,#183,#184,#185));
#94=EDGE_LOOP($,(#186));
#95=EDGE_LOOP($,(#187,#188,#189,#190));
#96=EDGE_LOOP($,(#191,#192,#193,#194));
#97=EDGE_LOOP($,(#195,#196,#197,#198));
#98=EDGE_LOOP($,(#199,#200,#201,#202,#203,#204,#205,#206));
#99=CIRCLE($,#235,6.75);
#100=CIRCLE($,#236,4.25);
#101=CIRCLE($,#238,6.75);
#102=CIRCLE($,#240,4.25);
#103=VERTEX_POINT($,#313);
#104=VERTEX_POINT($,#315);
#105=VERTEX_POINT($,#318);
#106=VERTEX_POINT($,#321);
#107=VERTEX_POINT($,#324);
#108=VERTEX_POINT($,#325);
#109=VERTEX_POINT($,#327);
#110=VERTEX_POINT($,#329);
#111=VERTEX_POINT($,#331);
#112=VERTEX_POINT($,#333);
#113=VERTEX_POINT($,#335);
#114=VERTEX_POINT($,#337);
#115=VERTEX_POINT($,#341);
#116=VERTEX_POINT($,#342);
#117=VERTEX_POINT($,#347);
#118=VERTEX_POINT($,#351);
#119=VERTEX_POINT($,#355);
#120=VERTEX_POINT($,#359);
#121=VERTEX_POINT($,#363);
#122=VERTEX_POINT($,#367);
#123=EDGE_CURVE($,#103,#103,#99,.T.);
#124=EDGE_CURVE($,#104,#104,#100,.T.);
#125=EDGE_CURVE($,#105,#105,#101,.T.);
#126=EDGE_CURVE($,#106,#106,#102,.T.);
#127=EDGE_CURVE($,#107,#108,#13,.T.);
#128=EDGE_CURVE($,#109,#107,#14,.T.);
#129=EDGE_CURVE($,#110,#109,#15,.T.);
#130=EDGE_CURVE($,#111,#110,#16,.T.);
#131=EDGE_CURVE($,#112,#111,#17,.T.);
#132=EDGE_CURVE($,#113,#112,#18,.T.);
#133=EDGE_CURVE($,#114,#113,#19,.T.);
#134=EDGE_CURVE($,#108,#114,#20,.T.);
#135=EDGE_CURVE($,#115,#116,#21,.T.);
#136=EDGE_CURVE($,#116,#110,#22,.T.);
#137=EDGE_CURVE($,#115,#109,#23,.T.);
#138=EDGE_CURVE($,#116,#117,#24,.T.);
#139=EDGE_CURVE($,#117,#111,#25,.T.);
#140=EDGE_CURVE($,#117,#118,#26,.T.);
#141=EDGE_CURVE($,#118,#112,#27,.T.);
#142=EDGE_CURVE($,#118,#119,#28,.T.);
#143=EDGE_CURVE($,#119,#113,#29,.T.);
#144=EDGE_CURVE($,#119,#120,#30,.T.);
#145=EDGE_CURVE($,#120,#114,#31,.T.);
#146=EDGE_CURVE($,#120,#121,#32,.T.);
#147=EDGE_CURVE($,#121,#108,#33,.T.);
#148=EDGE_CURVE($,#121,#122,#34,.T.);
#149=EDGE_CURVE($,#107,#122,#35,.T.);
#150=EDGE_CURVE($,#122,#115,#36,.T.);
#151=ORIENTED_EDGE($,*,*,#123,.T.);
#152=ORIENTED_EDGE($,*,*,#124,.F.);
#153=ORIENTED_EDGE($,*,*,#125,.F.);
#154=ORIENTED_EDGE($,*,*,#123,.F.);
#155=ORIENTED_EDGE($,*,*,#126,.F.);
#156=ORIENTED_EDGE($,*,*,#124,.T.);
#157=ORIENTED_EDGE($,*,*,#127,.F.);
#158=ORIENTED_EDGE($,*,*,#128,.F.);
#159=ORIENTED_EDGE($,*,*,#129,.F.);
#160=ORIENTED_EDGE($,*,*,#130,.F.);
#161=ORIENTED_EDGE($,*,*,#131,.F.);
#162=ORIENTED_EDGE($,*,*,#132,.F.);
#163=ORIENTED_EDGE($,*,*,#133,.F.);
#164=ORIENTED_EDGE($,*,*,#134,.F.);
#165=ORIENTED_EDGE($,*,*,#135,.T.);
#166=ORIENTED_EDGE($,*,*,#136,.T.);
#167=ORIENTED_EDGE($,*,*,#129,.T.);
#168=ORIENTED_EDGE($,*,*,#137,.F.);
#169=ORIENTED_EDGE($,*,*,#138,.T.);
#170=ORIENTED_EDGE($,*,*,#139,.T.);
#171=ORIENTED_EDGE($,*,*,#130,.T.);
#172=ORIENTED_EDGE($,*,*,#136,.F.);
#173=ORIENTED_EDGE($,*,*,#140,.T.);
#174=ORIENTED_EDGE($,*,*,#141,.T.);
#175=ORIENTED_EDGE($,*,*,#131,.T.);
#176=ORIENTED_EDGE($,*,*,#139,.F.);
#177=ORIENTED_EDGE($,*,*,#125,.T.);
#178=ORIENTED_EDGE($,*,*,#142,.T.);
#179=ORIENTED_EDGE($,*,*,#143,.T.);
#180=ORIENTED_EDGE($,*,*,#132,.T.);
#181=ORIENTED_EDGE($,*,*,#141,.F.);
#182=ORIENTED_EDGE($,*,*,#144,.T.);
#183=ORIENTED_EDGE($,*,*,#145,.T.);
#184=ORIENTED_EDGE($,*,*,#133,.T.);
#185=ORIENTED_EDGE($,*,*,#143,.F.);
#186=ORIENTED_EDGE($,*,*,#126,.T.);
#187=ORIENTED_EDGE($,*,*,#146,.T.);
#188=ORIENTED_EDGE($,*,*,#147,.T.);
#189=ORIENTED_EDGE($,*,*,#134,.T.);
#190=ORIENTED_EDGE($,*,*,#145,.F.);
#191=ORIENTED_EDGE($,*,*,#148,.T.);
#192=ORIENTED_EDGE($,*,*,#149,.F.);
#193=ORIENTED_EDGE($,*,*,#127,.T.);
#194=ORIENTED_EDGE($,*,*,#147,.F.);
#195=ORIENTED_EDGE($,*,*,#150,.T.);
#196=ORIENTED_EDGE($,*,*,#137,.T.);
#197=ORIENTED_EDGE($,*,*,#128,.T.);
#198=ORIENTED_EDGE($,*,*,#149,.T.);
#199=ORIENTED_EDGE($,*,*,#135,.F.);
#200=ORIENTED_EDGE($,*,*,#150,.F.);
#201=ORIENTED_EDGE($,*,*,#148,.F.);
#202=ORIENTED_EDGE($,*,*,#146,.F.);
#203=ORIENTED_EDGE($,*,*,#144,.F.);
#204=ORIENTED_EDGE($,*,*,#142,.F.);
#205=ORIENTED_EDGE($,*,*,#140,.F.);
#206=ORIENTED_EDGE($,*,*,#138,.F.);
#207=PLANE($,#234);
#208=PLANE($,#241);
#209=PLANE($,#242);
#210=PLANE($,#243);
#211=PLANE($,#244);
#212=PLANE($,#245);
#213=PLANE($,#246);
#214=PLANE($,#247);
#215=PLANE($,#248);
#216=PLANE($,#249);
#217=PLANE($,#250);
#218=ADVANCED_FACE($,(#70,#63),#207,.T.);
#219=ADVANCED_FACE($,(#71,#64),#61,.F.);
#220=ADVANCED_FACE($,(#72,#65),#62,.F.);
#221=ADVANCED_FACE($,(#73),#208,.F.);
#222=ADVANCED_FACE($,(#74),#209,.T.);
#223=ADVANCED_FACE($,(#75),#210,.T.);
#224=ADVANCED_FACE($,(#76),#211,.T.);
#225=ADVANCED_FACE($,(#66,#67),#212,.T.);
#226=ADVANCED_FACE($,(#77),#213,.T.);
#227=ADVANCED_FACE($,(#68,#69),#214,.T.);
#228=ADVANCED_FACE($,(#78),#215,.T.);
#229=ADVANCED_FACE($,(#79),#216,.T.);
#230=ADVANCED_FACE($,(#80),#217,.T.);
#231=CLOSED_SHELL($,(#218,#219,#220,#221,#222,#223,#224,#225,#226,#227,
#228,#229,#230));
#232=MANIFOLD_SOLID_BREP('T\X2\011B\X0\leso1',#231);
#233=AXIS2_PLACEMENT_3D('placement',#311,#251,#252);
#234=AXIS2_PLACEMENT_3D($,#312,#253,#254);
#235=AXIS2_PLACEMENT_3D($,#314,#255,#256);
#236=AXIS2_PLACEMENT_3D($,#316,#257,#258);
#237=AXIS2_PLACEMENT_3D($,#317,#259,#260);
#238=AXIS2_PLACEMENT_3D($,#319,#261,#262);
#239=AXIS2_PLACEMENT_3D($,#320,#263,#264);
#240=AXIS2_PLACEMENT_3D($,#322,#265,#266);
#241=AXIS2_PLACEMENT_3D($,#323,#267,#268);
#242=AXIS2_PLACEMENT_3D($,#340,#277,#278);
#243=AXIS2_PLACEMENT_3D($,#346,#282,#283);
#244=AXIS2_PLACEMENT_3D($,#350,#286,#287);
#245=AXIS2_PLACEMENT_3D($,#354,#290,#291);
#246=AXIS2_PLACEMENT_3D($,#358,#294,#295);
#247=AXIS2_PLACEMENT_3D($,#362,#298,#299);
#248=AXIS2_PLACEMENT_3D($,#366,#302,#303);
#249=AXIS2_PLACEMENT_3D($,#370,#306,#307);
#250=AXIS2_PLACEMENT_3D($,#372,#309,#310);
#251=DIRECTION('axis',(0.,0.,1.));
#252=DIRECTION('refdir',(1.,0.,0.));
#253=DIRECTION('center_axis',(2.66453525910038E-016,0.,1.));
#254=DIRECTION('ref_axis',(1.,0.,-2.66453525910038E-016));
#255=DIRECTION('center_axis',(2.66453525910038E-016,0.,1.));
#256=DIRECTION('ref_axis',(1.,0.,-2.66453525910038E-016));
#257=DIRECTION('center_axis',(2.66453525910038E-016,0.,1.));
#258=DIRECTION('ref_axis',(1.,0.,-2.66453525910038E-016));
#259=DIRECTION('center_axis',(2.66453525910038E-016,0.,1.));
#260=DIRECTION('ref_axis',(1.,0.,-2.66453525910038E-016));
#261=DIRECTION('center_axis',(-2.66453525910038E-016,0.,-1.));
#262=DIRECTION('ref_axis',(1.,0.,-2.66453525910038E-016));
#263=DIRECTION('center_axis',(2.66453525910038E-016,0.,1.));
#264=DIRECTION('ref_axis',(1.,0.,-2.66453525910038E-016));
#265=DIRECTION('center_axis',(1.30614473485313E-016,0.,1.));
#266=DIRECTION('ref_axis',(1.,0.,-2.66453525910038E-016));
#267=DIRECTION('center_axis',(0.,1.,0.));
#268=DIRECTION('ref_axis',(0.,0.,1.));
#269=DIRECTION($,(-4.29763751467802E-016,0.,-1.));
#270=DIRECTION($,(-1.,0.,1.2490009027033E-016));
#271=DIRECTION($,(5.55111512312578E-016,0.,1.));
#272=DIRECTION($,(-1.,0.,1.38777878078145E-016));
#273=DIRECTION($,(-4.44089209850063E-016,0.,-1.));
#274=DIRECTION($,(1.,0.,-2.66453525910038E-016));
#275=DIRECTION($,(3.02788097625043E-016,0.,1.));
#276=DIRECTION($,(-1.,0.,1.30614473485313E-016));
#277=DIRECTION('center_axis',(-1.,0.,5.55111512312578E-016));
#278=DIRECTION('ref_axis',(5.32907051820075E-016,0.,1.));
#279=DIRECTION($,(-5.55111512312578E-016,0.,-1.));
#280=DIRECTION($,(0.,-1.,0.));
#281=DIRECTION($,(0.,-1.,0.));
#282=DIRECTION('center_axis',(-1.38777878078145E-016,0.,-1.));
#283=DIRECTION('ref_axis',(-1.,0.,1.33226762955019E-016));
#284=DIRECTION($,(1.,0.,-1.38777878078145E-016));
#285=DIRECTION($,(0.,-1.,0.));
#286=DIRECTION('center_axis',(1.,0.,-4.44089209850063E-016));
#287=DIRECTION('ref_axis',(-4.44089209850063E-016,0.,-1.));
#288=DIRECTION($,(4.44089209850063E-016,0.,1.));
#289=DIRECTION($,(0.,-1.,0.));
#290=DIRECTION('center_axis',(2.66453525910038E-016,0.,1.));
#291=DIRECTION('ref_axis',(1.,0.,-2.66453525910038E-016));
#292=DIRECTION($,(-1.,0.,2.66453525910038E-016));
#293=DIRECTION($,(0.,-1.,0.));
#294=DIRECTION('center_axis',(-1.,0.,3.02788097625043E-016));
#295=DIRECTION('ref_axis',(3.5527136788005E-016,0.,1.));
#296=DIRECTION($,(-3.02788097625043E-016,0.,-1.));
#297=DIRECTION($,(0.,-1.,0.));
#298=DIRECTION('center_axis',(-1.30614473485313E-016,0.,-1.));
#299=DIRECTION('ref_axis',(-1.,0.,1.77635683940025E-016));
#300=DIRECTION($,(1.,0.,-1.30614473485313E-016));
#301=DIRECTION($,(0.,-1.,0.));
#302=DIRECTION('center_axis',(1.,0.,-4.29763751467802E-016));
#303=DIRECTION('ref_axis',(-4.29763751467802E-016,0.,-1.));
#304=DIRECTION($,(4.29763751467802E-016,0.,1.));
#305=DIRECTION($,(0.,1.,0.));
#306=DIRECTION('center_axis',(-1.2490009027033E-016,0.,-1.));
#307=DIRECTION('ref_axis',(-1.,0.,1.2490009027033E-016));
#308=DIRECTION($,(1.,0.,-1.2490009027033E-016));
#309=DIRECTION('center_axis',(0.,1.,0.));
#310=DIRECTION('ref_axis',(0.,0.,1.));
#311=CARTESIAN_POINT('',(0.,0.,0.));
#312=CARTESIAN_POINT('Origin',(-9.,0.,1.));
#313=CARTESIAN_POINT('',(-2.25,0.,0.999999999999999));
#314=CARTESIAN_POINT('Origin',(-9.,0.,1.));
#315=CARTESIAN_POINT('',(-13.25,-5.20474889637625E-016,1.));
#316=CARTESIAN_POINT('Origin',(-9.,0.,1.));
#317=CARTESIAN_POINT('Origin',(-9.,0.,3.75));
#318=CARTESIAN_POINT('',(-2.25,0.,6.5));
#319=CARTESIAN_POINT('Origin',(-9.,0.,6.5));
#320=CARTESIAN_POINT('Origin',(-9.,0.,-5.5));
#321=CARTESIAN_POINT('',(-13.25,-5.20474889637625E-016,-15.5));
#322=CARTESIAN_POINT('Origin',(-9.,0.,-15.5));
#323=CARTESIAN_POINT('Origin',(-5.5625,-18.,-3.15625));
#324=CARTESIAN_POINT('',(0.,-18.,0.));
#325=CARTESIAN_POINT('',(-6.66133814775094E-015,-18.,-15.5));
#326=CARTESIAN_POINT($,(-6.66133814775094E-015,-18.,-15.5));
#327=CARTESIAN_POINT('',(5.,-18.,-6.24500451351651E-016));
#328=CARTESIAN_POINT($,(0.,-18.,0.));
#329=CARTESIAN_POINT('',(5.,-18.,-1.));
#330=CARTESIAN_POINT($,(5.,-18.,-6.24500451351651E-016));
#331=CARTESIAN_POINT('',(8.,-18.,-1.));
#332=CARTESIAN_POINT($,(5.,-18.,-1.));
#333=CARTESIAN_POINT('',(8.,-18.,6.5));
#334=CARTESIAN_POINT($,(8.,-18.,-1.));
#335=CARTESIAN_POINT('',(-17.,-18.,6.5));
#336=CARTESIAN_POINT($,(8.,-18.,6.5));
#337=CARTESIAN_POINT('',(-17.,-18.,-15.5));
#338=CARTESIAN_POINT($,(-17.,-18.,6.5));
#339=CARTESIAN_POINT($,(-17.,-18.,-15.5));
#340=CARTESIAN_POINT('Origin',(5.,0.,-6.24500451351651E-016));
#341=CARTESIAN_POINT('',(5.,18.,-6.24500451351651E-016));
#342=CARTESIAN_POINT('',(5.,18.,-1.));
#343=CARTESIAN_POINT($,(5.,18.,-6.24500451351651E-016));
#344=CARTESIAN_POINT($,(5.,0.,-1.));
#345=CARTESIAN_POINT($,(5.,0.,-6.24500451351651E-016));
#346=CARTESIAN_POINT('Origin',(5.,0.,-1.));
#347=CARTESIAN_POINT('',(8.,18.,-1.));
#348=CARTESIAN_POINT($,(5.,18.,-1.));
#349=CARTESIAN_POINT($,(8.,0.,-1.));
#350=CARTESIAN_POINT('Origin',(8.,0.,-1.));
#351=CARTESIAN_POINT('',(8.,18.,6.5));
#352=CARTESIAN_POINT($,(8.,18.,-1.));
#353=CARTESIAN_POINT($,(8.,0.,6.5));
#354=CARTESIAN_POINT('Origin',(8.,0.,6.5));
#355=CARTESIAN_POINT('',(-17.,18.,6.5));
#356=CARTESIAN_POINT($,(8.,18.,6.5));
#357=CARTESIAN_POINT($,(-17.,0.,6.5));
#358=CARTESIAN_POINT('Origin',(-17.,0.,6.5));
#359=CARTESIAN_POINT('',(-17.,18.,-15.5));
#360=CARTESIAN_POINT($,(-17.,18.,6.5));
#361=CARTESIAN_POINT($,(-17.,0.,-15.5));
#362=CARTESIAN_POINT('Origin',(-17.,0.,-15.5));
#363=CARTESIAN_POINT('',(-6.66133814775094E-015,18.,-15.5));
#364=CARTESIAN_POINT($,(-17.,18.,-15.5));
#365=CARTESIAN_POINT($,(-6.66133814775094E-015,0.,-15.5));
#366=CARTESIAN_POINT('Origin',(-6.66133814775094E-015,0.,-15.5));
#367=CARTESIAN_POINT('',(0.,18.,0.));
#368=CARTESIAN_POINT($,(-6.66133814775094E-015,18.,-15.5));
#369=CARTESIAN_POINT($,(0.,0.,0.));
#370=CARTESIAN_POINT('Origin',(0.,0.,0.));
#371=CARTESIAN_POINT($,(0.,18.,0.));
#372=CARTESIAN_POINT('Origin',(-5.5625,18.,-3.15625));
#373=UNCERTAINTY_MEASURE_WITH_UNIT(LENGTH_MEASURE(0.01),#375,
'DISTANCE_ACCURACY_VALUE',
'Maximum model space distance between geometric entities at asserted c
onnectivities');
#374=(
GEOMETRIC_REPRESENTATION_CONTEXT(3)
GLOBAL_UNCERTAINTY_ASSIGNED_CONTEXT((#373))
GLOBAL_UNIT_ASSIGNED_CONTEXT((#375,#378,#376))
REPRESENTATION_CONTEXT('','3D')
);
#375=(
LENGTH_UNIT()
NAMED_UNIT(*)
SI_UNIT(.MILLI.,.METRE.)
);
#376=(
NAMED_UNIT(*)
SI_UNIT($,.STERADIAN.)
SOLID_ANGLE_UNIT()
);
#377=DIMENSIONAL_EXPONENTS(0.,0.,0.,0.,0.,0.,0.);
#378=(
CONVERSION_BASED_UNIT('degree',#380)
NAMED_UNIT(#377)
PLANE_ANGLE_UNIT()
);
#379=(
NAMED_UNIT(*)
PLANE_ANGLE_UNIT()
SI_UNIT($,.RADIAN.)
);
#380=PLANE_ANGLE_MEASURE_WITH_UNIT(PLANE_ANGLE_MEASURE(0.01745329252),#379);
#381=SHAPE_DEFINITION_REPRESENTATION(#382,#383);
#382=PRODUCT_DEFINITION_SHAPE('',$,#385);
#383=SHAPE_REPRESENTATION('',(#233),#374);
#384=PRODUCT_DEFINITION_CONTEXT('3D Mechanical Parts',#388,'design');
#385=PRODUCT_DEFINITION('324047','324047',#386,#384);
#386=PRODUCT_DEFINITION_FORMATION('',$,#390);
#387=APPLICATION_PROTOCOL_DEFINITION('international standard',
'automotive_design',2009,#388);
#388=APPLICATION_CONTEXT(
'Core Data for Automotive Mechanical Design Process');
#389=PRODUCT_CONTEXT('3D Mechanical Parts',#388,'mechanical');
#390=PRODUCT('324047','324047',$,(#389));
#391=PRESENTATION_STYLE_ASSIGNMENT((#392));
#392=SURFACE_STYLE_USAGE(.BOTH.,#393);
#393=SURFACE_SIDE_STYLE($,(#394));
#394=SURFACE_STYLE_FILL_AREA(#395);
#395=FILL_AREA_STYLE($,(#396));
#396=FILL_AREA_STYLE_COLOUR($,#397);
#397=COLOUR_RGB('',0.847058823529412,0.83921568627451,0.83921568627451);
ENDSEC;
END-ISO-10303-21;
