ISO-10303-21;
HEADER;
/* Generated by software containing ST-Developer
 * from STEP Tools, Inc. (www.steptools.com) 
 */

FILE_DESCRIPTION(
/* description */ ('Deska M10 - \X2\0159\X0\ada 6'),
/* implementation_level */ '2;1');

FILE_NAME(
/* name */ 'C:\\Users\\jiri.spacek\\Desktop\\526060.stp',
/* time_stamp */ '2017-12-13T10:35:18+01:00',
/* author */ ('jiri.spacek'),
/* organization */ (''),
/* preprocessor_version */ 'ST-DEVELOPER v16.1',
/* originating_system */ 'Autodesk Inventor 2016',
/* authorisation */ '');

FILE_SCHEMA (('CONFIG_CONTROL_DESIGN'));
ENDSEC;

DATA;
#10=MECHANICAL_DESIGN_GEOMETRIC_PRESENTATION_REPRESENTATION('',(#13),#633);
#11=SHAPE_REPRESENTATION_RELATIONSHIP('SRR','None',#642,#12);
#12=ADVANCED_BREP_SHAPE_REPRESENTATION('',(#14),#632);
#13=STYLED_ITEM('',(#651),#14);
#14=MANIFOLD_SOLID_BREP('T\X2\011B\X0\leso1',#379);
#15=LINE('',#556,#39);
#16=LINE('',#558,#40);
#17=LINE('',#560,#41);
#18=LINE('',#561,#42);
#19=LINE('',#564,#43);
#20=LINE('',#566,#44);
#21=LINE('',#567,#45);
#22=LINE('',#570,#46);
#23=LINE('',#572,#47);
#24=LINE('',#574,#48);
#25=LINE('',#576,#49);
#26=LINE('',#578,#50);
#27=LINE('',#579,#51);
#28=LINE('',#588,#52);
#29=LINE('',#590,#53);
#30=LINE('',#591,#54);
#31=LINE('',#594,#55);
#32=LINE('',#595,#56);
#33=LINE('',#598,#57);
#34=LINE('',#599,#58);
#35=LINE('',#602,#59);
#36=LINE('',#603,#60);
#37=LINE('',#626,#61);
#38=LINE('',#628,#62);
#39=VECTOR('',#454,2.8284271247462);
#40=VECTOR('',#455,10.);
#41=VECTOR('',#456,2.8284271247462);
#42=VECTOR('',#457,10.);
#43=VECTOR('',#460,56.);
#44=VECTOR('',#461,10.);
#45=VECTOR('',#462,56.);
#46=VECTOR('',#465,56.);
#47=VECTOR('',#466,2.82842712474619);
#48=VECTOR('',#467,56.);
#49=VECTOR('',#468,2.82842712474619);
#50=VECTOR('',#469,56.);
#51=VECTOR('',#470,2.82842712474619);
#52=VECTOR('',#479,10.);
#53=VECTOR('',#480,2.82842712474619);
#54=VECTOR('',#481,10.);
#55=VECTOR('',#484,56.);
#56=VECTOR('',#485,10.);
#57=VECTOR('',#488,2.82842712474619);
#58=VECTOR('',#489,10.);
#59=VECTOR('',#492,10.);
#60=VECTOR('',#493,2.82842712474619);
#61=VECTOR('',#524,56.);
#62=VECTOR('',#527,56.);
#63=CYLINDRICAL_SURFACE('',#384,5.5);
#64=CYLINDRICAL_SURFACE('',#386,3.25);
#65=CYLINDRICAL_SURFACE('',#391,5.5);
#66=CYLINDRICAL_SURFACE('',#393,3.25);
#67=CYLINDRICAL_SURFACE('',#408,5.5);
#68=CYLINDRICAL_SURFACE('',#409,3.25);
#69=CYLINDRICAL_SURFACE('',#414,5.5);
#70=CYLINDRICAL_SURFACE('',#415,3.25);
#71=CYLINDRICAL_SURFACE('',#417,4.188);
#72=FACE_BOUND('',#119,.T.);
#73=FACE_BOUND('',#121,.T.);
#74=FACE_BOUND('',#123,.T.);
#75=FACE_BOUND('',#125,.T.);
#76=FACE_BOUND('',#127,.T.);
#77=FACE_BOUND('',#129,.T.);
#78=FACE_BOUND('',#133,.T.);
#79=FACE_BOUND('',#134,.T.);
#80=FACE_BOUND('',#135,.T.);
#81=FACE_BOUND('',#136,.T.);
#82=FACE_BOUND('',#137,.T.);
#83=FACE_BOUND('',#143,.T.);
#84=FACE_BOUND('',#145,.T.);
#85=FACE_BOUND('',#147,.T.);
#86=FACE_BOUND('',#149,.T.);
#87=FACE_BOUND('',#151,.T.);
#88=FACE_BOUND('',#153,.T.);
#89=FACE_BOUND('',#155,.T.);
#90=FACE_BOUND('',#159,.T.);
#91=FACE_BOUND('',#160,.T.);
#92=FACE_BOUND('',#161,.T.);
#93=FACE_BOUND('',#162,.T.);
#94=FACE_BOUND('',#163,.T.);
#95=FACE_OUTER_BOUND('',#118,.T.);
#96=FACE_OUTER_BOUND('',#120,.T.);
#97=FACE_OUTER_BOUND('',#122,.T.);
#98=FACE_OUTER_BOUND('',#124,.T.);
#99=FACE_OUTER_BOUND('',#126,.T.);
#100=FACE_OUTER_BOUND('',#128,.T.);
#101=FACE_OUTER_BOUND('',#130,.T.);
#102=FACE_OUTER_BOUND('',#131,.T.);
#103=FACE_OUTER_BOUND('',#132,.T.);
#104=FACE_OUTER_BOUND('',#138,.T.);
#105=FACE_OUTER_BOUND('',#139,.T.);
#106=FACE_OUTER_BOUND('',#140,.T.);
#107=FACE_OUTER_BOUND('',#141,.T.);
#108=FACE_OUTER_BOUND('',#142,.T.);
#109=FACE_OUTER_BOUND('',#144,.T.);
#110=FACE_OUTER_BOUND('',#146,.T.);
#111=FACE_OUTER_BOUND('',#148,.T.);
#112=FACE_OUTER_BOUND('',#150,.T.);
#113=FACE_OUTER_BOUND('',#152,.T.);
#114=FACE_OUTER_BOUND('',#154,.T.);
#115=FACE_OUTER_BOUND('',#156,.T.);
#116=FACE_OUTER_BOUND('',#157,.T.);
#117=FACE_OUTER_BOUND('',#158,.T.);
#118=EDGE_LOOP('',(#258));
#119=EDGE_LOOP('',(#259));
#120=EDGE_LOOP('',(#260));
#121=EDGE_LOOP('',(#261));
#122=EDGE_LOOP('',(#262));
#123=EDGE_LOOP('',(#263));
#124=EDGE_LOOP('',(#264));
#125=EDGE_LOOP('',(#265));
#126=EDGE_LOOP('',(#266));
#127=EDGE_LOOP('',(#267));
#128=EDGE_LOOP('',(#268));
#129=EDGE_LOOP('',(#269));
#130=EDGE_LOOP('',(#270,#271,#272,#273));
#131=EDGE_LOOP('',(#274,#275,#276,#277));
#132=EDGE_LOOP('',(#278,#279,#280,#281,#282,#283,#284,#285));
#133=EDGE_LOOP('',(#286));
#134=EDGE_LOOP('',(#287));
#135=EDGE_LOOP('',(#288));
#136=EDGE_LOOP('',(#289));
#137=EDGE_LOOP('',(#290));
#138=EDGE_LOOP('',(#291,#292,#293,#294));
#139=EDGE_LOOP('',(#295,#296,#297,#298));
#140=EDGE_LOOP('',(#299,#300,#301,#302));
#141=EDGE_LOOP('',(#303,#304,#305,#306));
#142=EDGE_LOOP('',(#307));
#143=EDGE_LOOP('',(#308));
#144=EDGE_LOOP('',(#309));
#145=EDGE_LOOP('',(#310));
#146=EDGE_LOOP('',(#311));
#147=EDGE_LOOP('',(#312));
#148=EDGE_LOOP('',(#313));
#149=EDGE_LOOP('',(#314));
#150=EDGE_LOOP('',(#315));
#151=EDGE_LOOP('',(#316));
#152=EDGE_LOOP('',(#317));
#153=EDGE_LOOP('',(#318));
#154=EDGE_LOOP('',(#319));
#155=EDGE_LOOP('',(#320));
#156=EDGE_LOOP('',(#321,#322,#323,#324));
#157=EDGE_LOOP('',(#325,#326,#327,#328));
#158=EDGE_LOOP('',(#329,#330,#331,#332,#333,#334,#335,#336));
#159=EDGE_LOOP('',(#337));
#160=EDGE_LOOP('',(#338));
#161=EDGE_LOOP('',(#339));
#162=EDGE_LOOP('',(#340));
#163=EDGE_LOOP('',(#341));
#164=CIRCLE('',#382,5.5);
#165=CIRCLE('',#383,3.25);
#166=CIRCLE('',#385,5.5);
#167=CIRCLE('',#387,3.25);
#168=CIRCLE('',#389,5.5);
#169=CIRCLE('',#390,3.25);
#170=CIRCLE('',#392,5.5);
#171=CIRCLE('',#394,3.25);
#172=CIRCLE('',#398,5.5);
#173=CIRCLE('',#399,5.5);
#174=CIRCLE('',#400,4.188);
#175=CIRCLE('',#406,5.5);
#176=CIRCLE('',#407,3.25);
#177=CIRCLE('',#410,3.25);
#178=CIRCLE('',#412,5.5);
#179=CIRCLE('',#413,3.25);
#180=CIRCLE('',#416,3.25);
#181=CIRCLE('',#418,4.188);
#182=VERTEX_POINT('',#532);
#183=VERTEX_POINT('',#534);
#184=VERTEX_POINT('',#537);
#185=VERTEX_POINT('',#540);
#186=VERTEX_POINT('',#543);
#187=VERTEX_POINT('',#545);
#188=VERTEX_POINT('',#548);
#189=VERTEX_POINT('',#551);
#190=VERTEX_POINT('',#554);
#191=VERTEX_POINT('',#555);
#192=VERTEX_POINT('',#557);
#193=VERTEX_POINT('',#559);
#194=VERTEX_POINT('',#563);
#195=VERTEX_POINT('',#565);
#196=VERTEX_POINT('',#569);
#197=VERTEX_POINT('',#571);
#198=VERTEX_POINT('',#573);
#199=VERTEX_POINT('',#575);
#200=VERTEX_POINT('',#577);
#201=VERTEX_POINT('',#580);
#202=VERTEX_POINT('',#582);
#203=VERTEX_POINT('',#584);
#204=VERTEX_POINT('',#587);
#205=VERTEX_POINT('',#589);
#206=VERTEX_POINT('',#593);
#207=VERTEX_POINT('',#597);
#208=VERTEX_POINT('',#601);
#209=VERTEX_POINT('',#605);
#210=VERTEX_POINT('',#607);
#211=VERTEX_POINT('',#611);
#212=VERTEX_POINT('',#614);
#213=VERTEX_POINT('',#616);
#214=VERTEX_POINT('',#620);
#215=VERTEX_POINT('',#623);
#216=EDGE_CURVE('',#182,#182,#164,.T.);
#217=EDGE_CURVE('',#183,#183,#165,.T.);
#218=EDGE_CURVE('',#184,#184,#166,.T.);
#219=EDGE_CURVE('',#185,#185,#167,.T.);
#220=EDGE_CURVE('',#186,#186,#168,.T.);
#221=EDGE_CURVE('',#187,#187,#169,.T.);
#222=EDGE_CURVE('',#188,#188,#170,.T.);
#223=EDGE_CURVE('',#189,#189,#171,.T.);
#224=EDGE_CURVE('',#190,#191,#15,.T.);
#225=EDGE_CURVE('',#191,#192,#16,.T.);
#226=EDGE_CURVE('',#192,#193,#17,.T.);
#227=EDGE_CURVE('',#193,#190,#18,.T.);
#228=EDGE_CURVE('',#191,#194,#19,.T.);
#229=EDGE_CURVE('',#195,#194,#20,.T.);
#230=EDGE_CURVE('',#195,#192,#21,.T.);
#231=EDGE_CURVE('',#196,#190,#22,.T.);
#232=EDGE_CURVE('',#197,#196,#23,.T.);
#233=EDGE_CURVE('',#198,#197,#24,.T.);
#234=EDGE_CURVE('',#199,#198,#25,.T.);
#235=EDGE_CURVE('',#200,#199,#26,.T.);
#236=EDGE_CURVE('',#194,#200,#27,.T.);
#237=EDGE_CURVE('',#201,#201,#172,.T.);
#238=EDGE_CURVE('',#202,#202,#173,.T.);
#239=EDGE_CURVE('',#203,#203,#174,.T.);
#240=EDGE_CURVE('',#196,#204,#28,.T.);
#241=EDGE_CURVE('',#204,#205,#29,.T.);
#242=EDGE_CURVE('',#205,#197,#30,.T.);
#243=EDGE_CURVE('',#205,#206,#31,.T.);
#244=EDGE_CURVE('',#198,#206,#32,.T.);
#245=EDGE_CURVE('',#206,#207,#33,.T.);
#246=EDGE_CURVE('',#207,#199,#34,.T.);
#247=EDGE_CURVE('',#200,#208,#35,.T.);
#248=EDGE_CURVE('',#208,#195,#36,.T.);
#249=EDGE_CURVE('',#209,#209,#175,.T.);
#250=EDGE_CURVE('',#210,#210,#176,.T.);
#251=EDGE_CURVE('',#211,#211,#177,.T.);
#252=EDGE_CURVE('',#212,#212,#178,.T.);
#253=EDGE_CURVE('',#213,#213,#179,.T.);
#254=EDGE_CURVE('',#214,#214,#180,.T.);
#255=EDGE_CURVE('',#215,#215,#181,.T.);
#256=EDGE_CURVE('',#207,#208,#37,.T.);
#257=EDGE_CURVE('',#193,#204,#38,.T.);
#258=ORIENTED_EDGE('',*,*,#216,.T.);
#259=ORIENTED_EDGE('',*,*,#217,.F.);
#260=ORIENTED_EDGE('',*,*,#218,.F.);
#261=ORIENTED_EDGE('',*,*,#216,.F.);
#262=ORIENTED_EDGE('',*,*,#217,.T.);
#263=ORIENTED_EDGE('',*,*,#219,.F.);
#264=ORIENTED_EDGE('',*,*,#220,.T.);
#265=ORIENTED_EDGE('',*,*,#221,.F.);
#266=ORIENTED_EDGE('',*,*,#222,.F.);
#267=ORIENTED_EDGE('',*,*,#220,.F.);
#268=ORIENTED_EDGE('',*,*,#221,.T.);
#269=ORIENTED_EDGE('',*,*,#223,.F.);
#270=ORIENTED_EDGE('',*,*,#224,.T.);
#271=ORIENTED_EDGE('',*,*,#225,.T.);
#272=ORIENTED_EDGE('',*,*,#226,.T.);
#273=ORIENTED_EDGE('',*,*,#227,.T.);
#274=ORIENTED_EDGE('',*,*,#225,.F.);
#275=ORIENTED_EDGE('',*,*,#228,.T.);
#276=ORIENTED_EDGE('',*,*,#229,.F.);
#277=ORIENTED_EDGE('',*,*,#230,.T.);
#278=ORIENTED_EDGE('',*,*,#224,.F.);
#279=ORIENTED_EDGE('',*,*,#231,.F.);
#280=ORIENTED_EDGE('',*,*,#232,.F.);
#281=ORIENTED_EDGE('',*,*,#233,.F.);
#282=ORIENTED_EDGE('',*,*,#234,.F.);
#283=ORIENTED_EDGE('',*,*,#235,.F.);
#284=ORIENTED_EDGE('',*,*,#236,.F.);
#285=ORIENTED_EDGE('',*,*,#228,.F.);
#286=ORIENTED_EDGE('',*,*,#218,.T.);
#287=ORIENTED_EDGE('',*,*,#222,.T.);
#288=ORIENTED_EDGE('',*,*,#237,.T.);
#289=ORIENTED_EDGE('',*,*,#238,.T.);
#290=ORIENTED_EDGE('',*,*,#239,.T.);
#291=ORIENTED_EDGE('',*,*,#232,.T.);
#292=ORIENTED_EDGE('',*,*,#240,.T.);
#293=ORIENTED_EDGE('',*,*,#241,.T.);
#294=ORIENTED_EDGE('',*,*,#242,.T.);
#295=ORIENTED_EDGE('',*,*,#242,.F.);
#296=ORIENTED_EDGE('',*,*,#243,.T.);
#297=ORIENTED_EDGE('',*,*,#244,.F.);
#298=ORIENTED_EDGE('',*,*,#233,.T.);
#299=ORIENTED_EDGE('',*,*,#234,.T.);
#300=ORIENTED_EDGE('',*,*,#244,.T.);
#301=ORIENTED_EDGE('',*,*,#245,.T.);
#302=ORIENTED_EDGE('',*,*,#246,.T.);
#303=ORIENTED_EDGE('',*,*,#236,.T.);
#304=ORIENTED_EDGE('',*,*,#247,.T.);
#305=ORIENTED_EDGE('',*,*,#248,.T.);
#306=ORIENTED_EDGE('',*,*,#229,.T.);
#307=ORIENTED_EDGE('',*,*,#249,.T.);
#308=ORIENTED_EDGE('',*,*,#250,.F.);
#309=ORIENTED_EDGE('',*,*,#237,.F.);
#310=ORIENTED_EDGE('',*,*,#249,.F.);
#311=ORIENTED_EDGE('',*,*,#250,.T.);
#312=ORIENTED_EDGE('',*,*,#251,.F.);
#313=ORIENTED_EDGE('',*,*,#252,.T.);
#314=ORIENTED_EDGE('',*,*,#253,.F.);
#315=ORIENTED_EDGE('',*,*,#238,.F.);
#316=ORIENTED_EDGE('',*,*,#252,.F.);
#317=ORIENTED_EDGE('',*,*,#253,.T.);
#318=ORIENTED_EDGE('',*,*,#254,.F.);
#319=ORIENTED_EDGE('',*,*,#239,.F.);
#320=ORIENTED_EDGE('',*,*,#255,.F.);
#321=ORIENTED_EDGE('',*,*,#246,.F.);
#322=ORIENTED_EDGE('',*,*,#256,.T.);
#323=ORIENTED_EDGE('',*,*,#247,.F.);
#324=ORIENTED_EDGE('',*,*,#235,.T.);
#325=ORIENTED_EDGE('',*,*,#227,.F.);
#326=ORIENTED_EDGE('',*,*,#257,.T.);
#327=ORIENTED_EDGE('',*,*,#240,.F.);
#328=ORIENTED_EDGE('',*,*,#231,.T.);
#329=ORIENTED_EDGE('',*,*,#226,.F.);
#330=ORIENTED_EDGE('',*,*,#230,.F.);
#331=ORIENTED_EDGE('',*,*,#248,.F.);
#332=ORIENTED_EDGE('',*,*,#256,.F.);
#333=ORIENTED_EDGE('',*,*,#245,.F.);
#334=ORIENTED_EDGE('',*,*,#243,.F.);
#335=ORIENTED_EDGE('',*,*,#241,.F.);
#336=ORIENTED_EDGE('',*,*,#257,.F.);
#337=ORIENTED_EDGE('',*,*,#219,.T.);
#338=ORIENTED_EDGE('',*,*,#223,.T.);
#339=ORIENTED_EDGE('',*,*,#251,.T.);
#340=ORIENTED_EDGE('',*,*,#254,.T.);
#341=ORIENTED_EDGE('',*,*,#255,.T.);
#342=PLANE('',#381);
#343=PLANE('',#388);
#344=PLANE('',#395);
#345=PLANE('',#396);
#346=PLANE('',#397);
#347=PLANE('',#401);
#348=PLANE('',#402);
#349=PLANE('',#403);
#350=PLANE('',#404);
#351=PLANE('',#405);
#352=PLANE('',#411);
#353=PLANE('',#419);
#354=PLANE('',#420);
#355=PLANE('',#421);
#356=ADVANCED_FACE('',(#95,#72),#342,.T.);
#357=ADVANCED_FACE('',(#96,#73),#63,.F.);
#358=ADVANCED_FACE('',(#97,#74),#64,.F.);
#359=ADVANCED_FACE('',(#98,#75),#343,.T.);
#360=ADVANCED_FACE('',(#99,#76),#65,.F.);
#361=ADVANCED_FACE('',(#100,#77),#66,.F.);
#362=ADVANCED_FACE('',(#101),#344,.T.);
#363=ADVANCED_FACE('',(#102),#345,.T.);
#364=ADVANCED_FACE('',(#103,#78,#79,#80,#81,#82),#346,.T.);
#365=ADVANCED_FACE('',(#104),#347,.T.);
#366=ADVANCED_FACE('',(#105),#348,.T.);
#367=ADVANCED_FACE('',(#106),#349,.T.);
#368=ADVANCED_FACE('',(#107),#350,.T.);
#369=ADVANCED_FACE('',(#108,#83),#351,.T.);
#370=ADVANCED_FACE('',(#109,#84),#67,.F.);
#371=ADVANCED_FACE('',(#110,#85),#68,.F.);
#372=ADVANCED_FACE('',(#111,#86),#352,.T.);
#373=ADVANCED_FACE('',(#112,#87),#69,.F.);
#374=ADVANCED_FACE('',(#113,#88),#70,.F.);
#375=ADVANCED_FACE('',(#114,#89),#71,.F.);
#376=ADVANCED_FACE('',(#115),#353,.T.);
#377=ADVANCED_FACE('',(#116),#354,.T.);
#378=ADVANCED_FACE('',(#117,#90,#91,#92,#93,#94),#355,.F.);
#379=CLOSED_SHELL('',(#356,#357,#358,#359,#360,#361,#362,#363,#364,#365,
#366,#367,#368,#369,#370,#371,#372,#373,#374,#375,#376,#377,#378));
#380=AXIS2_PLACEMENT_3D('placement',#530,#422,#423);
#381=AXIS2_PLACEMENT_3D('',#531,#424,#425);
#382=AXIS2_PLACEMENT_3D('',#533,#426,#427);
#383=AXIS2_PLACEMENT_3D('',#535,#428,#429);
#384=AXIS2_PLACEMENT_3D('',#536,#430,#431);
#385=AXIS2_PLACEMENT_3D('',#538,#432,#433);
#386=AXIS2_PLACEMENT_3D('',#539,#434,#435);
#387=AXIS2_PLACEMENT_3D('',#541,#436,#437);
#388=AXIS2_PLACEMENT_3D('',#542,#438,#439);
#389=AXIS2_PLACEMENT_3D('',#544,#440,#441);
#390=AXIS2_PLACEMENT_3D('',#546,#442,#443);
#391=AXIS2_PLACEMENT_3D('',#547,#444,#445);
#392=AXIS2_PLACEMENT_3D('',#549,#446,#447);
#393=AXIS2_PLACEMENT_3D('',#550,#448,#449);
#394=AXIS2_PLACEMENT_3D('',#552,#450,#451);
#395=AXIS2_PLACEMENT_3D('',#553,#452,#453);
#396=AXIS2_PLACEMENT_3D('',#562,#458,#459);
#397=AXIS2_PLACEMENT_3D('',#568,#463,#464);
#398=AXIS2_PLACEMENT_3D('',#581,#471,#472);
#399=AXIS2_PLACEMENT_3D('',#583,#473,#474);
#400=AXIS2_PLACEMENT_3D('',#585,#475,#476);
#401=AXIS2_PLACEMENT_3D('',#586,#477,#478);
#402=AXIS2_PLACEMENT_3D('',#592,#482,#483);
#403=AXIS2_PLACEMENT_3D('',#596,#486,#487);
#404=AXIS2_PLACEMENT_3D('',#600,#490,#491);
#405=AXIS2_PLACEMENT_3D('',#604,#494,#495);
#406=AXIS2_PLACEMENT_3D('',#606,#496,#497);
#407=AXIS2_PLACEMENT_3D('',#608,#498,#499);
#408=AXIS2_PLACEMENT_3D('',#609,#500,#501);
#409=AXIS2_PLACEMENT_3D('',#610,#502,#503);
#410=AXIS2_PLACEMENT_3D('',#612,#504,#505);
#411=AXIS2_PLACEMENT_3D('',#613,#506,#507);
#412=AXIS2_PLACEMENT_3D('',#615,#508,#509);
#413=AXIS2_PLACEMENT_3D('',#617,#510,#511);
#414=AXIS2_PLACEMENT_3D('',#618,#512,#513);
#415=AXIS2_PLACEMENT_3D('',#619,#514,#515);
#416=AXIS2_PLACEMENT_3D('',#621,#516,#517);
#417=AXIS2_PLACEMENT_3D('',#622,#518,#519);
#418=AXIS2_PLACEMENT_3D('',#624,#520,#521);
#419=AXIS2_PLACEMENT_3D('',#625,#522,#523);
#420=AXIS2_PLACEMENT_3D('',#627,#525,#526);
#421=AXIS2_PLACEMENT_3D('',#629,#528,#529);
#422=DIRECTION('axis',(0.,0.,1.));
#423=DIRECTION('refdir',(1.,0.,0.));
#424=DIRECTION('center_axis',(0.,0.,1.));
#425=DIRECTION('ref_axis',(1.,0.,0.));
#426=DIRECTION('center_axis',(0.,0.,1.));
#427=DIRECTION('ref_axis',(1.,0.,0.));
#428=DIRECTION('center_axis',(0.,0.,1.));
#429=DIRECTION('ref_axis',(1.,0.,0.));
#430=DIRECTION('center_axis',(0.,0.,1.));
#431=DIRECTION('ref_axis',(1.,0.,0.));
#432=DIRECTION('center_axis',(0.,0.,-1.));
#433=DIRECTION('ref_axis',(1.,0.,0.));
#434=DIRECTION('center_axis',(0.,0.,1.));
#435=DIRECTION('ref_axis',(1.,0.,0.));
#436=DIRECTION('center_axis',(0.,0.,1.));
#437=DIRECTION('ref_axis',(1.,0.,0.));
#438=DIRECTION('center_axis',(0.,0.,1.));
#439=DIRECTION('ref_axis',(1.,0.,0.));
#440=DIRECTION('center_axis',(0.,0.,1.));
#441=DIRECTION('ref_axis',(1.,0.,0.));
#442=DIRECTION('center_axis',(0.,0.,1.));
#443=DIRECTION('ref_axis',(1.,0.,0.));
#444=DIRECTION('center_axis',(0.,0.,1.));
#445=DIRECTION('ref_axis',(1.,0.,0.));
#446=DIRECTION('center_axis',(0.,0.,-1.));
#447=DIRECTION('ref_axis',(1.,0.,0.));
#448=DIRECTION('center_axis',(0.,0.,1.));
#449=DIRECTION('ref_axis',(1.,0.,0.));
#450=DIRECTION('center_axis',(0.,0.,1.));
#451=DIRECTION('ref_axis',(1.,0.,0.));
#452=DIRECTION('center_axis',(0.707106781186548,-0.707106781186548,0.));
#453=DIRECTION('ref_axis',(0.,0.,-1.));
#454=DIRECTION('',(-0.707106781186548,-0.707106781186548,0.));
#455=DIRECTION('',(0.,0.,-1.));
#456=DIRECTION('',(0.707106781186548,0.707106781186548,0.));
#457=DIRECTION('',(0.,0.,1.));
#458=DIRECTION('center_axis',(0.,-1.,0.));
#459=DIRECTION('ref_axis',(0.,0.,-1.));
#460=DIRECTION('',(-1.,0.,0.));
#461=DIRECTION('',(0.,0.,1.));
#462=DIRECTION('',(1.,0.,0.));
#463=DIRECTION('center_axis',(0.,0.,1.));
#464=DIRECTION('ref_axis',(1.,0.,0.));
#465=DIRECTION('',(1.48029736616688E-16,-1.,0.));
#466=DIRECTION('',(0.707106781186547,-0.707106781186548,0.));
#467=DIRECTION('',(1.,2.22044604925031E-16,0.));
#468=DIRECTION('',(0.707106781186547,0.707106781186547,0.));
#469=DIRECTION('',(-2.96059473233375E-16,1.,0.));
#470=DIRECTION('',(-0.707106781186547,0.707106781186547,0.));
#471=DIRECTION('center_axis',(0.,0.,-1.));
#472=DIRECTION('ref_axis',(1.,0.,0.));
#473=DIRECTION('center_axis',(0.,0.,-1.));
#474=DIRECTION('ref_axis',(1.,0.,0.));
#475=DIRECTION('center_axis',(0.,0.,-1.));
#476=DIRECTION('ref_axis',(1.,0.,0.));
#477=DIRECTION('center_axis',(0.707106781186548,0.707106781186547,0.));
#478=DIRECTION('ref_axis',(0.,0.,-1.));
#479=DIRECTION('',(0.,0.,-1.));
#480=DIRECTION('',(-0.707106781186547,0.707106781186548,0.));
#481=DIRECTION('',(0.,0.,1.));
#482=DIRECTION('center_axis',(-2.22044604925031E-16,1.,0.));
#483=DIRECTION('ref_axis',(0.,0.,1.));
#484=DIRECTION('',(-1.,-2.22044604925031E-16,0.));
#485=DIRECTION('',(0.,0.,-1.));
#486=DIRECTION('center_axis',(-0.707106781186548,0.707106781186548,0.));
#487=DIRECTION('ref_axis',(0.,0.,1.));
#488=DIRECTION('',(-0.707106781186547,-0.707106781186547,0.));
#489=DIRECTION('',(0.,0.,1.));
#490=DIRECTION('center_axis',(-0.707106781186548,-0.707106781186548,0.));
#491=DIRECTION('ref_axis',(0.,0.,1.));
#492=DIRECTION('',(0.,0.,-1.));
#493=DIRECTION('',(0.707106781186547,-0.707106781186547,0.));
#494=DIRECTION('center_axis',(0.,0.,1.));
#495=DIRECTION('ref_axis',(1.,0.,0.));
#496=DIRECTION('center_axis',(0.,0.,1.));
#497=DIRECTION('ref_axis',(1.,0.,0.));
#498=DIRECTION('center_axis',(0.,0.,1.));
#499=DIRECTION('ref_axis',(1.,0.,0.));
#500=DIRECTION('center_axis',(0.,0.,1.));
#501=DIRECTION('ref_axis',(1.,0.,0.));
#502=DIRECTION('center_axis',(0.,0.,1.));
#503=DIRECTION('ref_axis',(1.,0.,0.));
#504=DIRECTION('center_axis',(0.,0.,1.));
#505=DIRECTION('ref_axis',(1.,0.,0.));
#506=DIRECTION('center_axis',(0.,0.,1.));
#507=DIRECTION('ref_axis',(1.,0.,0.));
#508=DIRECTION('center_axis',(0.,0.,1.));
#509=DIRECTION('ref_axis',(1.,0.,0.));
#510=DIRECTION('center_axis',(0.,0.,1.));
#511=DIRECTION('ref_axis',(1.,0.,0.));
#512=DIRECTION('center_axis',(0.,0.,1.));
#513=DIRECTION('ref_axis',(1.,0.,0.));
#514=DIRECTION('center_axis',(0.,0.,1.));
#515=DIRECTION('ref_axis',(1.,0.,0.));
#516=DIRECTION('center_axis',(0.,0.,1.));
#517=DIRECTION('ref_axis',(1.,0.,0.));
#518=DIRECTION('center_axis',(0.,0.,1.));
#519=DIRECTION('ref_axis',(1.,0.,0.));
#520=DIRECTION('center_axis',(0.,0.,1.));
#521=DIRECTION('ref_axis',(1.,0.,0.));
#522=DIRECTION('center_axis',(-1.,-2.96059473233375E-16,0.));
#523=DIRECTION('ref_axis',(0.,0.,1.));
#524=DIRECTION('',(2.96059473233375E-16,-1.,0.));
#525=DIRECTION('center_axis',(1.,1.48029736616688E-16,0.));
#526=DIRECTION('ref_axis',(0.,0.,-1.));
#527=DIRECTION('',(-1.48029736616688E-16,1.,0.));
#528=DIRECTION('center_axis',(0.,0.,1.));
#529=DIRECTION('ref_axis',(1.,0.,0.));
#530=CARTESIAN_POINT('',(0.,0.,0.));
#531=CARTESIAN_POINT('Origin',(-15.,-15.,5.));
#532=CARTESIAN_POINT('',(-9.49999999999999,-15.,5.));
#533=CARTESIAN_POINT('Origin',(-15.,-15.,5.));
#534=CARTESIAN_POINT('',(-18.25,-15.,5.));
#535=CARTESIAN_POINT('Origin',(-15.,-15.,5.));
#536=CARTESIAN_POINT('Origin',(-15.,-15.,7.5));
#537=CARTESIAN_POINT('',(-9.49999999999999,-15.,10.));
#538=CARTESIAN_POINT('Origin',(-15.,-15.,10.));
#539=CARTESIAN_POINT('Origin',(-15.,-15.,5.));
#540=CARTESIAN_POINT('',(-11.75,-15.,0.));
#541=CARTESIAN_POINT('Origin',(-15.,-15.,0.));
#542=CARTESIAN_POINT('Origin',(15.,-15.,5.));
#543=CARTESIAN_POINT('',(20.5,-15.,5.));
#544=CARTESIAN_POINT('Origin',(15.,-15.,5.));
#545=CARTESIAN_POINT('',(11.75,-15.,5.));
#546=CARTESIAN_POINT('Origin',(15.,-15.,5.));
#547=CARTESIAN_POINT('Origin',(15.,-15.,7.5));
#548=CARTESIAN_POINT('',(20.5,-15.,10.));
#549=CARTESIAN_POINT('Origin',(15.,-15.,10.));
#550=CARTESIAN_POINT('Origin',(15.,-15.,5.));
#551=CARTESIAN_POINT('',(18.25,-15.,0.));
#552=CARTESIAN_POINT('Origin',(15.,-15.,0.));
#553=CARTESIAN_POINT('Origin',(29.,-29.,0.));
#554=CARTESIAN_POINT('',(30.,-28.,10.));
#555=CARTESIAN_POINT('',(28.,-30.,10.));
#556=CARTESIAN_POINT('',(29.,-29.,10.));
#557=CARTESIAN_POINT('',(28.,-30.,0.));
#558=CARTESIAN_POINT('',(28.,-30.,0.));
#559=CARTESIAN_POINT('',(30.,-28.,0.));
#560=CARTESIAN_POINT('',(29.,-29.,0.));
#561=CARTESIAN_POINT('',(30.,-28.,0.));
#562=CARTESIAN_POINT('Origin',(30.,-30.,0.));
#563=CARTESIAN_POINT('',(-28.,-30.,10.));
#564=CARTESIAN_POINT('',(-30.,-30.,10.));
#565=CARTESIAN_POINT('',(-28.,-30.,0.));
#566=CARTESIAN_POINT('',(-28.,-30.,0.));
#567=CARTESIAN_POINT('',(-30.,-30.,0.));
#568=CARTESIAN_POINT('Origin',(2.22044604925031E-15,-6.05576195250085E-16,
10.));
#569=CARTESIAN_POINT('',(30.,28.,10.));
#570=CARTESIAN_POINT('',(30.,-30.,10.));
#571=CARTESIAN_POINT('',(28.,30.,10.));
#572=CARTESIAN_POINT('',(29.,29.,10.));
#573=CARTESIAN_POINT('',(-28.,30.,10.));
#574=CARTESIAN_POINT('',(30.,30.,10.));
#575=CARTESIAN_POINT('',(-30.,28.,10.));
#576=CARTESIAN_POINT('',(-29.,29.,10.));
#577=CARTESIAN_POINT('',(-30.,-28.,10.));
#578=CARTESIAN_POINT('',(-30.,30.,10.));
#579=CARTESIAN_POINT('',(-29.,-29.,10.));
#580=CARTESIAN_POINT('',(20.5,15.,10.));
#581=CARTESIAN_POINT('Origin',(15.,15.,10.));
#582=CARTESIAN_POINT('',(-9.5,15.,10.));
#583=CARTESIAN_POINT('Origin',(-15.,15.,10.));
#584=CARTESIAN_POINT('',(4.188,3.83531590325054E-15,10.));
#585=CARTESIAN_POINT('Origin',(-2.22044604925031E-15,3.83531590325054E-15,
10.));
#586=CARTESIAN_POINT('Origin',(29.,29.,0.));
#587=CARTESIAN_POINT('',(30.,28.,0.));
#588=CARTESIAN_POINT('',(30.,28.,0.));
#589=CARTESIAN_POINT('',(28.,30.,0.));
#590=CARTESIAN_POINT('',(29.,29.,0.));
#591=CARTESIAN_POINT('',(28.,30.,0.));
#592=CARTESIAN_POINT('Origin',(-30.,30.,0.));
#593=CARTESIAN_POINT('',(-28.,30.,0.));
#594=CARTESIAN_POINT('',(30.,30.,0.));
#595=CARTESIAN_POINT('',(-28.,30.,0.));
#596=CARTESIAN_POINT('Origin',(-29.,29.,0.));
#597=CARTESIAN_POINT('',(-30.,28.,0.));
#598=CARTESIAN_POINT('',(-29.,29.,0.));
#599=CARTESIAN_POINT('',(-30.,28.,0.));
#600=CARTESIAN_POINT('Origin',(-29.,-29.,0.));
#601=CARTESIAN_POINT('',(-30.,-28.,0.));
#602=CARTESIAN_POINT('',(-30.,-28.,0.));
#603=CARTESIAN_POINT('',(-29.,-29.,0.));
#604=CARTESIAN_POINT('Origin',(15.,15.,5.));
#605=CARTESIAN_POINT('',(20.5,15.,5.));
#606=CARTESIAN_POINT('Origin',(15.,15.,5.));
#607=CARTESIAN_POINT('',(11.75,15.,5.));
#608=CARTESIAN_POINT('Origin',(15.,15.,5.));
#609=CARTESIAN_POINT('Origin',(15.,15.,7.5));
#610=CARTESIAN_POINT('Origin',(15.,15.,5.));
#611=CARTESIAN_POINT('',(18.25,15.,0.));
#612=CARTESIAN_POINT('Origin',(15.,15.,0.));
#613=CARTESIAN_POINT('Origin',(-15.,15.,5.));
#614=CARTESIAN_POINT('',(-9.5,15.,5.));
#615=CARTESIAN_POINT('Origin',(-15.,15.,5.));
#616=CARTESIAN_POINT('',(-18.25,15.,5.));
#617=CARTESIAN_POINT('Origin',(-15.,15.,5.));
#618=CARTESIAN_POINT('Origin',(-15.,15.,7.5));
#619=CARTESIAN_POINT('Origin',(-15.,15.,5.));
#620=CARTESIAN_POINT('',(-11.75,15.,0.));
#621=CARTESIAN_POINT('Origin',(-15.,15.,0.));
#622=CARTESIAN_POINT('Origin',(-2.22044604925031E-15,3.83531590325054E-15,
5.));
#623=CARTESIAN_POINT('',(4.188,3.83531590325054E-15,0.));
#624=CARTESIAN_POINT('Origin',(-2.22044604925031E-15,3.83531590325054E-15,
0.));
#625=CARTESIAN_POINT('Origin',(-30.,-30.,0.));
#626=CARTESIAN_POINT('',(-30.,30.,0.));
#627=CARTESIAN_POINT('Origin',(30.,30.,0.));
#628=CARTESIAN_POINT('',(30.,-30.,0.));
#629=CARTESIAN_POINT('Origin',(2.22044604925031E-15,-1.31208175637519E-15,
0.));
#630=UNCERTAINTY_MEASURE_WITH_UNIT(LENGTH_MEASURE(0.01),#634,
'DISTANCE_ACCURACY_VALUE',
'Maximum model space distance between geometric entities at asserted c
onnectivities');
#631=UNCERTAINTY_MEASURE_WITH_UNIT(LENGTH_MEASURE(1.E-6),#634,
'DISTANCE_ACCURACY_VALUE',
'Maximum model space distance between geometric entities at asserted c
onnectivities');
#632=(
GEOMETRIC_REPRESENTATION_CONTEXT(3)
GLOBAL_UNCERTAINTY_ASSIGNED_CONTEXT((#630))
GLOBAL_UNIT_ASSIGNED_CONTEXT((#634,#637,#635))
REPRESENTATION_CONTEXT('','3D')
);
#633=(
GEOMETRIC_REPRESENTATION_CONTEXT(3)
GLOBAL_UNCERTAINTY_ASSIGNED_CONTEXT((#631))
GLOBAL_UNIT_ASSIGNED_CONTEXT((#634,#637,#635))
REPRESENTATION_CONTEXT('','3D')
);
#634=(
LENGTH_UNIT()
NAMED_UNIT(*)
SI_UNIT(.MILLI.,.METRE.)
);
#635=(
NAMED_UNIT(*)
SI_UNIT($,.STERADIAN.)
SOLID_ANGLE_UNIT()
);
#636=DIMENSIONAL_EXPONENTS(0.,0.,0.,0.,0.,0.,0.);
#637=(
CONVERSION_BASED_UNIT('degree',#639)
NAMED_UNIT(#636)
PLANE_ANGLE_UNIT()
);
#638=(
NAMED_UNIT(*)
PLANE_ANGLE_UNIT()
SI_UNIT($,.RADIAN.)
);
#639=PLANE_ANGLE_MEASURE_WITH_UNIT(PLANE_ANGLE_MEASURE(0.01745329252),#638);
#640=SHAPE_DEFINITION_REPRESENTATION(#641,#642);
#641=PRODUCT_DEFINITION_SHAPE('',$,#644);
#642=SHAPE_REPRESENTATION('',(#380),#632);
#643=DESIGN_CONTEXT('part definition',#648,'design');
#644=PRODUCT_DEFINITION('526060','526060',#645,#643);
#645=PRODUCT_DEFINITION_FORMATION('',$,#650);
#646=PRODUCT_RELATED_PRODUCT_CATEGORY('526060','526060',(#650));
#647=APPLICATION_PROTOCOL_DEFINITION('international standard',
'ap203_configuration_controlled_3d_design_of_mechanical_parts_and_asse
mblies_mim_lf',2004,#648);
#648=APPLICATION_CONTEXT(
'Configuration Controlled 3D Design of Mechanical Parts and Assemblies');
#649=MECHANICAL_CONTEXT('part definition',#648,'mechanical');
#650=PRODUCT('526060','526060',$,(#649));
#651=PRESENTATION_STYLE_ASSIGNMENT((#652));
#652=SURFACE_STYLE_USAGE(.BOTH.,#653);
#653=SURFACE_SIDE_STYLE('',(#654));
#654=SURFACE_STYLE_FILL_AREA(#655);
#655=FILL_AREA_STYLE('',(#656));
#656=FILL_AREA_STYLE_COLOUR('',#657);
#657=COLOUR_RGB('',0.847058823529412,0.83921568627451,0.83921568627451);
ENDSEC;
END-ISO-10303-21;
