                                                                        S      1
,,,14H622912.stp.ipt,22HAutodesk Inventor 2014,7Hunknown,32,38,7,99,15,,G      1
1.,2,2HMM,1,0.08,15H20151016.101907,0.01,10000.,5Hzeman,,11,0,;         G      2
     406       1                       1                        00000000D      1
     406                       1       3                               0D      2
     186       2                                                00000000D      3
     186            -219       1       0                               0D      4
     514       3                                                00010000D      5
     514                       1       1                               0D      6
     190       4                                                00010000D      7
     190       0    -219       1       1                               0D      8
     190       5                                                00010000D      9
     190       0    -219       1       1                               0D     10
     190       6                                                00010000D     11
     190       0    -219       1       1                               0D     12
     190       7                                                00010000D     13
     190       0    -219       1       1                               0D     14
     190       8                                                00010000D     15
     190       0    -219       1       1                               0D     16
     190       9                                                00010000D     17
     190       0    -219       1       1                               0D     18
     190      10                                                00010000D     19
     190       0    -219       1       1                               0D     20
     190      11                                                00010000D     21
     190       0    -219       1       1                               0D     22
     123      12                                                00010200D     23
     123       0               1       0                               0D     24
     123      13                                                00010200D     25
     123       0               1       0                               0D     26
     123      14                                                00010200D     27
     123       0               1       0                               0D     28
     123      15                                                00010200D     29
     123       0               1       0                               0D     30
     123      16                                                00010200D     31
     123       0               1       0                               0D     32
     123      17                                                00010200D     33
     123       0               1       0                               0D     34
     123      18                                                00010200D     35
     123       0               1       0                               0D     36
     123      19                                                00010200D     37
     123       0               1       0                               0D     38
     123      20                                                00010200D     39
     123       0               1       0                               0D     40
     123      21                                                00010200D     41
     123       0               1       0                               0D     42
     123      22                                                00010200D     43
     123       0               1       0                               0D     44
     123      23                                                00010200D     45
     123       0               1       0                               0D     46
     123      24                                                00010200D     47
     123       0               1       0                               0D     48
     123      25                                                00010200D     49
     123       0               1       0                               0D     50
     123      26                                                00010200D     51
     123       0               1       0                               0D     52
     123      27                                                00010200D     53
     123       0               1       0                               0D     54
     116      28                                                00010000D     55
     116       0               1       0                               0D     56
     116      29                                                00010000D     57
     116       0               1       0                               0D     58
     116      30                                                00010000D     59
     116       0               1       0                               0D     60
     116      31                                                00010000D     61
     116       0               1       0                               0D     62
     116      32                                                00010000D     63
     116       0               1       0                               0D     64
     116      33                                                00010000D     65
     116       0               1       0                               0D     66
     116      34                                                00010000D     67
     116       0               1       0                               0D     68
     116      35                                                00010000D     69
     116       0               1       0                               0D     70
     510      36                                                00010000D     71
     510            -219       1       1                               0D     72
     510      37                                                00010000D     73
     510            -219       1       1                               0D     74
     510      38                                                00010000D     75
     510            -219       1       1                               0D     76
     510      39                                                00010000D     77
     510            -219       1       1                               0D     78
     510      40                                                00010000D     79
     510            -219       1       1                               0D     80
     510      41                                                00010000D     81
     510            -219       1       1                               0D     82
     510      42                                                00010000D     83
     510            -219       1       1                               0D     84
     510      43                                                00010000D     85
     510            -219       1       1                               0D     86
     510      44                                                00010000D     87
     510            -219       1       1                               0D     88
     510      45                                                00010000D     89
     510            -219       1       1                               0D     90
     510      46                                                00010000D     91
     510            -219       1       1                               0D     92
     508      47                                                00010000D     93
     508                       2       1                               0D     94
     508      49                                                00010000D     95
     508                       1       1                               0D     96
     508      50                                                00010000D     97
     508                       1       1                               0D     98
     508      51                                                00010000D     99
     508                       1       1                               0D    100
     508      52                                                00010000D    101
     508                       1       1                               0D    102
     508      53                                                00010000D    103
     508                       1       1                               0D    104
     508      54                                                00010000D    105
     508                       1       1                               0D    106
     508      55                                                00010000D    107
     508                       1       1                               0D    108
     508      56                                                00010000D    109
     508                       1       1                               0D    110
     508      57                                                00010000D    111
     508                       1       1                               0D    112
     508      58                                                00010000D    113
     508                       1       1                               0D    114
     508      59                                                00010000D    115
     508                       1       1                               0D    116
     508      60                                                00010000D    117
     508                       1       1                               0D    118
     508      61                                                00010000D    119
     508                       1       1                               0D    120
     508      62                                                00010000D    121
     508                       1       1                               0D    122
     124      63                                                00000000D    123
     124                       2       0                               0D    124
     124      65                                                00000000D    125
     124                       2       0                               0D    126
     124      67                                                00000000D    127
     124                       1       0                               0D    128
     124      68                                                00000000D    129
     124                       1       0                               0D    130
     124      69                                                00000000D    131
     124                       1       0                               0D    132
     124      70                                                00000000D    133
     124                       1       0                               0D    134
     124      71                                                00000000D    135
     124                       1       0                               0D    136
     100      72                                     123        00010000D    137
     100       0               2       0                               0D    138
     100      74                                     125        00010000D    139
     100       0               2       0                               0D    140
     100      76                                     127        00010000D    141
     100       0               1       0                               0D    142
     100      77                                     129        00010000D    143
     100       0               1       0                               0D    144
     100      78                                     131        00010000D    145
     100       0               1       0                               0D    146
     100      79                                     133        00010000D    147
     100       0               1       0                               0D    148
     100      80                                     135        00010000D    149
     100       0               1       0                               0D    150
     120      81                                                00010000D    151
     120       0    -219       1       0                               0D    152
     120      82                                                00010000D    153
     120       0    -219       1       0                               0D    154
     120      83                                                00010000D    155
     120       0    -219       1       0                               0D    156
     110      84                                                00010000D    157
     110       0               1       0                               0D    158
     110      85                                                00010000D    159
     110       0               1       0                               0D    160
     110      86                                                00010000D    161
     110       0               1       0                               0D    162
     110      87                                                00010000D    163
     110       0               1       0                               0D    164
     110      88                                                00010000D    165
     110       0               1       0                               0D    166
     110      89                                                00010000D    167
     110       0               1       0                               0D    168
     110      90                                                00010000D    169
     110       0               1       0                               0D    170
     110      91                                                00010000D    171
     110       0               1       0                               0D    172
     110      92                                                00010000D    173
     110       0               1       0                               0D    174
     110      93                                                00010000D    175
     110       0               1       0                               0D    176
     110      94                                                00010000D    177
     110       0               1       0                               0D    178
     110      95                                                00010000D    179
     110       0               1       0                               0D    180
     110      96                                                00010000D    181
     110       0               1       0                               0D    182
     110      97                                                00010000D    183
     110       0               1       0                               0D    184
     110      98                                                00010000D    185
     110       0               1       0                               0D    186
     110      99                                                00010000D    187
     110       0               1       0                               0D    188
     110     100                                                00010000D    189
     110       0               1       0                               0D    190
     110     101                                                00010000D    191
     110       0               1       0                               0D    192
     110     102                                                00010000D    193
     110       0               1       0                               0D    194
     110     103                                                00010000D    195
     110       0               1       0                               0D    196
     110     104                                                00010000D    197
     110       0               1       0                               0D    198
     110     105                                                00010000D    199
     110       0               1       0                               0D    200
     110     106                                                00010000D    201
     110       0               1       0                               0D    202
     110     107                                                00010000D    203
     110       0               1       0                               0D    204
     110     108                                                00010000D    205
     110       0               1       0                               0D    206
     110     109                                                00010000D    207
     110       0               1       0                               0D    208
     110     110                                                00010000D    209
     110       0               1       0                               0D    210
     502     111                                                00010000D    211
     502                       7       1                               0D    212
     504     118                                                00010001D    213
     504                       8       1                               0D    214
     406     126                                                00000000D    215
     406                       1      15                               0D    216
     314     127                                                00000200D    217
     314                       1       0                               0D    218
     314     128                                                00000200D    219
     314                       1       0                               0D    220
406,2,0,10H622912.stp;                                                 1P      1
186,5,1,0,0,1,215;                                                     3P      2
514,11,71,1,73,1,75,1,77,1,79,1,81,1,83,1,85,1,87,1,89,1,91,1;         5P      3
190,55,23,25;                                                          7P      4
190,57,27,29;                                                          9P      5
190,59,31,33;                                                         11P      6
190,61,35,37;                                                         13P      7
190,63,39,41;                                                         15P      8
190,65,43,45;                                                         17P      9
190,67,47,49;                                                         19P     10
190,69,51,53;                                                         21P     11
123,0.,1.,0.;                                                         23P     12
123,0.,0.,-1.;                                                        25P     13
123,-0.,-1.,-0.;                                                      27P     14
123,0.,0.,1.;                                                         29P     15
123,-1.,0.,0.;                                                        31P     16
123,0.,0.,1.;                                                         33P     17
123,0.,1.,0.;                                                         35P     18
123,0.,0.,1.;                                                         37P     19
123,1.,0.,0.;                                                         39P     20
123,0.,0.,-1.;                                                        41P     21
123,0.,-1.,0.;                                                        43P     22
123,0.,0.,-1.;                                                        45P     23
123,-0.,-0.,-1.;                                                      47P     24
123,1.,0.,0.;                                                         49P     25
123,0.,0.,1.;                                                         51P     26
123,1.,0.,0.;                                                         53P     27
116,22.5,9.,0.,0;                                                     55P     28
116,6.49999999999999,17.,0.,0;                                        57P     29
116,0.,0.,0.,0;                                                       59P     30
116,-4.440892D-015,20.,0.,0;                                          61P     31
116,29.,20.,0.,0;                                                     63P     32
116,29.,0.,0.,0;                                                      65P     33
116,14.5,10.,0.,0;                                                    67P     34
116,14.5,10.,12.,0;                                                   69P     35
510,151,1,1,93;                                                       71P     36
510,153,1,1,95;                                                       73P     37
510,7,1,1,97;                                                         75P     38
510,155,1,1,99;                                                       77P     39
510,9,1,1,101;                                                        79P     40
510,11,2,1,103,105;                                                   81P     41
510,13,1,1,107;                                                       83P     42
510,15,2,1,109,111;                                                   85P     43
510,17,1,1,113;                                                       87P     44
510,19,2,1,115,117;                                                   89P     45
510,21,2,1,119,121;                                                   91P     46
508,5,0,213,1,0,0,0,213,2,0,0,0,213,3,1,0,0,213,4,0,0,0,213,3,0,      93P     47
0;                                                                    93P     48
508,4,0,213,5,0,0,0,213,6,0,0,0,213,7,0,0,0,213,8,1,0;                95P     49
508,4,0,213,9,0,0,0,213,8,0,0,0,213,10,0,0,0,213,11,1,0;              97P     50
508,4,0,213,12,0,0,0,213,11,0,0,0,213,13,0,0,0,213,14,1,0;            99P     51
508,4,0,213,15,0,0,0,213,14,0,0,0,213,16,0,0,0,213,6,1,0;            101P     52
508,4,0,213,17,1,0,0,213,18,0,0,0,213,19,1,0,0,213,20,1,0;           103P     53
508,2,0,213,1,1,0,0,213,2,1,0;                                       105P     54
508,4,0,213,21,1,0,0,213,22,0,0,0,213,23,1,0,0,213,18,1,0;           107P     55
508,4,0,213,24,1,0,0,213,25,0,0,0,213,26,1,0,0,213,22,1,0;           109P     56
508,1,0,213,4,1,0;                                                   111P     57
508,4,0,213,27,1,0,0,213,20,0,0,0,213,28,1,0,0,213,25,1,0;           113P     58
508,4,0,213,28,0,0,0,213,19,0,0,0,213,23,0,0,0,213,26,0,0;           115P     59
508,4,0,213,7,1,0,0,213,16,1,0,0,213,13,1,0,0,213,10,1,0;            117P     60
508,4,0,213,17,0,0,0,213,27,0,0,0,213,24,0,0,0,213,21,0,0;           119P     61
508,4,0,213,5,1,0,0,213,9,1,0,0,213,12,1,0,0,213,15,1,0;             121P     62
124,0.,-0.,1.,-2.220446D-015,1.,0.,-0.,4.99999999999999,0.,1.,       123P     63
0.,5.;                                                               123P     64
124,0.,-0.,1.,-2.220446D-015,1.,0.,-0.,4.99999999999999,0.,1.,       125P     65
0.,5.;                                                               125P     66
124,0.,-0.,-1.,29.,1.,0.,0.,5.,0.,-1.,0.,5.;                         127P     67
124,0.,1.,0.,22.5,1.,-0.,-0.,13.,0.,-0.,-1.,12.;                     129P     68
124,0.,-1.,0.,22.5,1.,0.,-0.,13.,-0.,-0.,1.,0.;                      131P     69
124,0.,-1.,0.,6.5,-1.,-0.,-0.,13.,0.,-0.,-1.,12.;                    133P     70
124,0.,1.,0.,6.5,-1.,0.,0.,13.,0.,-0.,1.,0.;                         135P     71
100,0.,0.,0.,-2.4585,-8.88178419700125D-016,2.4585,                  137P     72
-8.88178419700125D-016;                                              137P     73
100,0.,0.,0.,2.4585,-8.88178419700125D-016,-2.4585,                  139P     74
-8.88178419700125D-016;                                              139P     75
100,0.,0.,0.,2.4585,0.,2.4585,0.;                                    141P     76
100,0.,0.,0.,4.,0.,-4.,3.5527136788005D-015;                         143P     77
100,0.,0.,0.,-4.,-3.5527136788005D-015,4.,0.;                        145P     78
100,0.,0.,0.,4.,-3.5527136788005D-015,-4.,8.88178419700125D-016;     147P     79
100,0.,0.,0.,-4.,-8.88178419700125D-016,4.,3.5527136788005D-015;     149P     80
120,157,159,0.,6.28318530717959;                                     151P     81
120,163,165,0.,6.28318530717959;                                     153P     82
120,177,179,0.,6.28318530717959;                                     155P     83
110,14.5,4.99999999999999,5.,15.5,4.99999999999999,5.;               157P     84
110,-5.32907051820075D-015,7.45849999999999,5.,29.,7.4585,5.;        159P     85
110,-4.44089209850063D-015,7.45849999999999,5.,29.,7.4585,5.;        161P     86
110,22.5,13.,0.,22.5,13.,1.;                                         163P     87
110,22.5,9.,0.,22.5,9.,12.;                                          165P     88
110,22.5,17.,0.,22.5,17.,12.;                                        167P     89
110,22.5,9.,0.,22.5,9.,12.;                                          169P     90
110,22.5,9.,12.,6.5,8.99999999999999,12.;                            171P     91
110,6.5,8.99999999999999,0.,22.5,9.,0.;                              173P     92
110,6.5,8.99999999999999,0.,6.5,8.99999999999999,12.;                175P     93
110,6.5,13.,0.,6.5,13.,1.;                                           177P     94
110,6.49999999999999,17.,0.,6.49999999999999,17.,12.;                179P     95
110,6.49999999999999,17.,0.,6.49999999999999,17.,12.;                181P     96
110,6.49999999999999,17.,12.,22.5,17.,12.;                           183P     97
110,22.5,17.,0.,6.49999999999999,17.,0.;                             185P     98
110,0.,0.,12.,-4.440892D-015,20.,12.;                                187P     99
110,-4.440892D-015,20.,0.,-4.440892D-015,20.,12.;                    189P    100
110,-4.440892D-015,20.,0.,0.,0.,0.;                                  191P    101
110,0.,0.,0.,0.,0.,12.;                                              193P    102
110,-4.440892D-015,20.,12.,29.,20.,12.;                              195P    103
110,29.,20.,0.,29.,20.,12.;                                          197P    104
110,29.,20.,0.,-4.440892D-015,20.,0.;                                199P    105
110,29.,20.,12.,29.,0.,12.;                                          201P    106
110,29.,0.,0.,29.,0.,12.;                                            203P    107
110,29.,0.,0.,29.,20.,0.;                                            205P    108
110,29.,0.,12.,0.,0.,12.;                                            207P    109
110,0.,0.,0.,29.,0.,0.;                                              209P    110
502,19,-1.128653D-015,2.54149999999999,5.,                           211P    111
-4.44089209850063D-015,7.45849999999999,5.,29.,7.4585,5.,22.5,       211P    112
17.,12.,22.5,9.,12.,22.5,17.,0.,22.5,9.,0.,6.5,8.99999999999999,     211P    113
12.,6.5,8.99999999999999,0.,6.49999999999999,17.,12.,                211P    114
6.49999999999999,17.,0.,0.,0.,12.,-4.440892D-015,20.,12.,            211P    115
-4.440892D-015,20.,0.,0.,0.,0.,29.,20.,12.,29.,20.,0.,29.,0.,        211P    116
12.,29.,0.,0.;                                                       211P    117
504,28,137,211,1,211,2,139,211,2,211,1,161,211,2,211,3,141,211,      213P    118
3,211,3,143,211,4,211,5,167,211,6,211,4,145,211,7,211,6,169,211,     213P    119
7,211,5,171,211,5,211,8,173,211,9,211,7,175,211,9,211,8,147,211,     213P    120
8,211,10,149,211,11,211,9,181,211,11,211,10,183,211,10,211,4,        213P    121
185,211,6,211,11,187,211,12,211,13,189,211,14,211,13,191,211,14,     213P    122
211,15,193,211,15,211,12,195,211,13,211,16,197,211,17,211,16,        213P    123
199,211,17,211,14,201,211,16,211,18,203,211,19,211,18,205,211,       213P    124
19,211,17,207,211,18,211,12,209,211,15,211,19;                       213P    125
406,1,8HTěleso1;                                                    215P    126
314,74.9019607843137,74.9019607843137,74.9019607843137,;             217P    127
314,84.7058823529412,83.921568627451,83.921568627451,;               219P    128
S      1G      2D    220P    128                                        T      1
