ISO-10303-21;
HEADER;
/****************************************************************
 * Generated by software with PDE/Lib inside                    *
 * PDElib Version v51a, created Mon 03/22/2010                  *
 * International Technegroup Inc. (www.iti-oh.com)              *
 ****************************************************************/
FILE_DESCRIPTION((''),'2;1');
FILE_NAME('D:\\P\X2\0159\X0\evod katalogu\\P\X2\0159\X0\evod do STEP\\Modul 45\\Kompleta\X2\010D\X0\n\S\m dopl\X2\0148\X0\ky\\622912\\622912.ipt.stp','2010-09-05T12:23:00',(''),(''),'Autodesk Inventor 2010','Autodesk Inventor 2010','');
FILE_SCHEMA(('AUTOMOTIVE_DESIGN { 1 0 10303 214 1 1 1 1 }'));
ENDSEC;
DATA;
#5=APPLICATION_CONTEXT('automotive design');
#6=APPLICATION_PROTOCOL_DEFINITION('International Standard','automotive_design',2001,#5);
#7=PRODUCT_CONTEXT('',#5,'mechanical');
#8=PRODUCT('622912','622912',$,(#7));
#9=PRODUCT_RELATED_PRODUCT_CATEGORY('part',$,(#8));
#10=PRODUCT_DEFINITION_FORMATION('',$,#8);
#11=PRODUCT_DEFINITION_CONTEXT('part definition',#5,'design');
#12=PRODUCT_DEFINITION('',$,#10,#11);
#18=(NAMED_UNIT(*)PLANE_ANGLE_UNIT()SI_UNIT($,.RADIAN.));
#19=DIMENSIONAL_EXPONENTS(0.0,0.0,0.0,0.0,0.0,0.0,0.0);
#20=PLANE_ANGLE_MEASURE_WITH_UNIT(PLANE_ANGLE_MEASURE(0.017453292500000),#18);
#24=(CONVERSION_BASED_UNIT('DEGREE',#20)NAMED_UNIT(#19)PLANE_ANGLE_UNIT());
#28=(NAMED_UNIT(*)SI_UNIT($,.STERADIAN.)SOLID_ANGLE_UNIT());
#32=(LENGTH_UNIT()NAMED_UNIT(*)SI_UNIT(.MILLI.,.METRE.));
#34=UNCERTAINTY_MEASURE_WITH_UNIT(LENGTH_MEASURE(0.010000000000000),#32,'DISTANCE_ACCURACY_VALUE','');
#36=(GEOMETRIC_REPRESENTATION_CONTEXT(3)GLOBAL_UNCERTAINTY_ASSIGNED_CONTEXT((#34))GLOBAL_UNIT_ASSIGNED_CONTEXT((#24,#28,#32))REPRESENTATION_CONTEXT('None','None'));
#37=AXIS2_PLACEMENT_3D('',#38,#39,#40);
#38=CARTESIAN_POINT('',(0.0,0.0,0.0));
#39=DIRECTION('',(0.0,0.0,1.0));
#40=DIRECTION('',(1.0,0.0,0.0));
#41=SHAPE_REPRESENTATION('',(#37),#36);
#42=PRODUCT_DEFINITION_SHAPE('','',#12);
#43=SHAPE_DEFINITION_REPRESENTATION(#42,#41);
#49=(NAMED_UNIT(*)PLANE_ANGLE_UNIT()SI_UNIT($,.RADIAN.));
#50=DIMENSIONAL_EXPONENTS(0.0,0.0,0.0,0.0,0.0,0.0,0.0);
#51=PLANE_ANGLE_MEASURE_WITH_UNIT(PLANE_ANGLE_MEASURE(0.017453292500000),#49);
#55=(CONVERSION_BASED_UNIT('DEGREE',#51)NAMED_UNIT(#50)PLANE_ANGLE_UNIT());
#59=(NAMED_UNIT(*)SI_UNIT($,.STERADIAN.)SOLID_ANGLE_UNIT());
#63=(LENGTH_UNIT()NAMED_UNIT(*)SI_UNIT(.MILLI.,.METRE.));
#65=UNCERTAINTY_MEASURE_WITH_UNIT(LENGTH_MEASURE(0.000001000000000),#63,'DISTANCE_ACCURACY_VALUE','');
#67=(GEOMETRIC_REPRESENTATION_CONTEXT(3)GLOBAL_UNCERTAINTY_ASSIGNED_CONTEXT((#65))GLOBAL_UNIT_ASSIGNED_CONTEXT((#55,#59,#63))REPRESENTATION_CONTEXT('','3D'));
#68=CARTESIAN_POINT('',(29.000000000000007,2.541500000000000,5.0));
#69=CARTESIAN_POINT('',(-1.776357E-015,2.541499999999987,5.0));
#70=CARTESIAN_POINT('',(29.000000000000007,2.541500000000000,2.541500000000000));
#71=CARTESIAN_POINT('',(-1.776357E-015,2.541499999999987,2.541500000000001));
#72=CARTESIAN_POINT('',(29.000000000000007,5.0,2.541500000000000));
#73=CARTESIAN_POINT('',(-3.552714E-015,4.999999999999987,2.541500000000000));
#74=CARTESIAN_POINT('',(29.000000000000007,7.458500000000000,2.541500000000000));
#75=CARTESIAN_POINT('',(-5.329071E-015,7.458499999999987,2.541500000000001));
#76=CARTESIAN_POINT('',(29.000000000000007,7.458500000000001,5.0));
#77=CARTESIAN_POINT('',(-5.329071E-015,7.458499999999987,5.0));
#78=CARTESIAN_POINT('',(29.000000000000007,7.458500000000000,7.458500000000000));
#79=CARTESIAN_POINT('',(-5.329071E-015,7.458499999999987,7.458499999999999));
#80=CARTESIAN_POINT('',(29.000000000000007,5.0,7.458500000000001));
#81=CARTESIAN_POINT('',(-3.552714E-015,4.999999999999987,7.458500000000000));
#82=CARTESIAN_POINT('',(29.000000000000007,2.541500000000000,7.458500000000000));
#83=CARTESIAN_POINT('',(-1.776357E-015,2.541499999999987,7.458499999999999));
#84=CARTESIAN_POINT('',(29.000000000000007,2.541500000000000,5.0));
#85=CARTESIAN_POINT('',(-1.776357E-015,2.541499999999987,5.0));
#93=(BOUNDED_SURFACE()B_SPLINE_SURFACE(1,2,((#68,#70,#72,#74,#76,#78,#80,#82,#84),(#69,#71,#73,#75,#77,#79,#81,#83,#85)),.UNSPECIFIED.,.F.,.T.,.U.)B_SPLINE_SURFACE_WITH_KNOTS((2,2),(3,2,2,2,3),(-15.137518052412771,-3.341707598884193),(0.0,3.861802769425253,7.723605538850507,11.585408308275760,15.447211077701013),.UNSPECIFIED.)GEOMETRIC_REPRESENTATION_ITEM()RATIONAL_B_SPLINE_SURFACE(((1.0,0.707106781186548,1.0,0.707106781186548,1.0,0.707106781186548,1.0,0.707106781186548,1.0),(1.0,0.707106781186548,1.0,0.707106781186548,1.0,0.707106781186548,1.0,0.707106781186548,1.0)))REPRESENTATION_ITEM('')SURFACE());
#94=CARTESIAN_POINT('',(-1.128653E-015,2.541499999999987,4.999999999999999));
#95=VERTEX_POINT('',#94);
#96=CARTESIAN_POINT('',(-2.220446E-015,4.999999999999988,5.0));
#97=DIRECTION('',(1.0,0.0,0.0));
#98=DIRECTION('',(0.0,1.0,0.0));
#99=AXIS2_PLACEMENT_3D('',#96,#97,#98);
#100=CIRCLE('',#99,2.458500000000000);
#101=EDGE_CURVE('',#95,#95,#100,.T.);
#102=ORIENTED_EDGE('',*,*,#101,.F.);
#103=EDGE_LOOP('',(#102));
#104=FACE_OUTER_BOUND('',#103,.T.);
#105=CARTESIAN_POINT('',(29.000000000000004,7.458500000000000,5.0));
#106=VERTEX_POINT('',#105);
#107=CARTESIAN_POINT('',(29.000000000000004,5.0,5.0));
#108=DIRECTION('',(-1.0,0.0,0.0));
#109=DIRECTION('',(0.0,1.0,0.0));
#110=AXIS2_PLACEMENT_3D('',#107,#108,#109);
#111=CIRCLE('',#110,2.458500000000000);
#112=EDGE_CURVE('',#106,#106,#111,.T.);
#113=ORIENTED_EDGE('',*,*,#112,.F.);
#114=EDGE_LOOP('',(#113));
#115=FACE_BOUND('',#114,.T.);
#116=ADVANCED_FACE('',(#104,#115),#93,.F.);
#117=CARTESIAN_POINT('',(22.500000000000000,13.0,0.0));
#118=DIRECTION('',(0.0,0.0,1.0));
#119=DIRECTION('',(0.0,1.0,0.0));
#120=AXIS2_PLACEMENT_3D('',#117,#118,#119);
#121=CYLINDRICAL_SURFACE('',#120,3.999999999999999);
#122=CARTESIAN_POINT('',(22.500000000000000,17.0,12.000000000000002));
#123=VERTEX_POINT('',#122);
#124=CARTESIAN_POINT('',(22.500000000000004,9.000000000000002,12.000000000000002));
#125=VERTEX_POINT('',#124);
#126=CARTESIAN_POINT('',(22.500000000000000,13.0,12.000000000000002));
#127=DIRECTION('',(0.0,0.0,-1.0));
#128=DIRECTION('',(0.0,1.0,0.0));
#129=AXIS2_PLACEMENT_3D('',#126,#127,#128);
#130=CIRCLE('',#129,3.999999999999999);
#131=EDGE_CURVE('',#123,#125,#130,.T.);
#132=ORIENTED_EDGE('',*,*,#131,.F.);
#133=CARTESIAN_POINT('',(22.500000000000000,17.0,0.0));
#134=VERTEX_POINT('',#133);
#135=CARTESIAN_POINT('',(22.500000000000000,17.0,0.0));
#136=DIRECTION('',(0.0,0.0,1.0));
#137=VECTOR('',#136,12.000000000000002);
#138=LINE('',#135,#137);
#139=EDGE_CURVE('',#134,#123,#138,.T.);
#140=ORIENTED_EDGE('',*,*,#139,.F.);
#141=CARTESIAN_POINT('',(22.500000000000004,9.000000000000002,0.0));
#142=VERTEX_POINT('',#141);
#143=CARTESIAN_POINT('',(22.500000000000000,13.0,0.0));
#144=DIRECTION('',(0.0,0.0,1.0));
#145=DIRECTION('',(0.0,1.0,0.0));
#146=AXIS2_PLACEMENT_3D('',#143,#144,#145);
#147=CIRCLE('',#146,3.999999999999999);
#148=EDGE_CURVE('',#142,#134,#147,.T.);
#149=ORIENTED_EDGE('',*,*,#148,.F.);
#150=CARTESIAN_POINT('',(22.500000000000004,9.000000000000002,0.0));
#151=DIRECTION('',(0.0,0.0,1.0));
#152=VECTOR('',#151,12.000000000000002);
#153=LINE('',#150,#152);
#154=EDGE_CURVE('',#142,#125,#153,.T.);
#155=ORIENTED_EDGE('',*,*,#154,.T.);
#156=EDGE_LOOP('',(#132,#140,#149,#155));
#157=FACE_OUTER_BOUND('',#156,.T.);
#158=ADVANCED_FACE('',(#157),#121,.F.);
#159=CARTESIAN_POINT('',(22.500000000000004,9.000000000000002,0.0));
#160=DIRECTION('',(0.0,-1.0,0.0));
#161=DIRECTION('',(0.0,0.0,-1.0));
#162=AXIS2_PLACEMENT_3D('',#159,#160,#161);
#163=PLANE('',#162);
#164=CARTESIAN_POINT('',(6.499999999999998,8.999999999999993,12.000000000000002));
#165=VERTEX_POINT('',#164);
#166=CARTESIAN_POINT('',(22.500000000000004,9.000000000000002,12.000000000000002));
#167=DIRECTION('',(-1.0,0.0,0.0));
#168=VECTOR('',#167,16.000000000000007);
#169=LINE('',#166,#168);
#170=EDGE_CURVE('',#125,#165,#169,.T.);
#171=ORIENTED_EDGE('',*,*,#170,.F.);
#172=ORIENTED_EDGE('',*,*,#154,.F.);
#173=CARTESIAN_POINT('',(6.499999999999998,8.999999999999993,0.0));
#174=VERTEX_POINT('',#173);
#175=CARTESIAN_POINT('',(6.499999999999998,8.999999999999993,0.0));
#176=DIRECTION('',(1.0,0.0,0.0));
#177=VECTOR('',#176,16.000000000000007);
#178=LINE('',#175,#177);
#179=EDGE_CURVE('',#174,#142,#178,.T.);
#180=ORIENTED_EDGE('',*,*,#179,.F.);
#181=CARTESIAN_POINT('',(6.499999999999998,8.999999999999993,0.0));
#182=DIRECTION('',(0.0,0.0,1.0));
#183=VECTOR('',#182,12.000000000000002);
#184=LINE('',#181,#183);
#185=EDGE_CURVE('',#174,#165,#184,.T.);
#186=ORIENTED_EDGE('',*,*,#185,.T.);
#187=EDGE_LOOP('',(#171,#172,#180,#186));
#188=FACE_OUTER_BOUND('',#187,.T.);
#189=ADVANCED_FACE('',(#188),#163,.F.);
#190=CARTESIAN_POINT('',(6.499999999999996,12.999999999999993,0.0));
#191=DIRECTION('',(0.0,0.0,1.0));
#192=DIRECTION('',(0.0,-1.0,0.0));
#193=AXIS2_PLACEMENT_3D('',#190,#191,#192);
#194=CYLINDRICAL_SURFACE('',#193,4.0);
#195=CARTESIAN_POINT('',(6.499999999999994,16.999999999999993,12.000000000000002));
#196=VERTEX_POINT('',#195);
#197=CARTESIAN_POINT('',(6.499999999999996,12.999999999999993,12.000000000000002));
#198=DIRECTION('',(0.0,0.0,-1.0));
#199=DIRECTION('',(0.0,-1.0,0.0));
#200=AXIS2_PLACEMENT_3D('',#197,#198,#199);
#201=CIRCLE('',#200,4.0);
#202=EDGE_CURVE('',#165,#196,#201,.T.);
#203=ORIENTED_EDGE('',*,*,#202,.F.);
#204=ORIENTED_EDGE('',*,*,#185,.F.);
#205=CARTESIAN_POINT('',(6.499999999999994,16.999999999999993,0.0));
#206=VERTEX_POINT('',#205);
#207=CARTESIAN_POINT('',(6.499999999999996,12.999999999999993,0.0));
#208=DIRECTION('',(0.0,0.0,1.0));
#209=DIRECTION('',(0.0,-1.0,0.0));
#210=AXIS2_PLACEMENT_3D('',#207,#208,#209);
#211=CIRCLE('',#210,4.0);
#212=EDGE_CURVE('',#206,#174,#211,.T.);
#213=ORIENTED_EDGE('',*,*,#212,.F.);
#214=CARTESIAN_POINT('',(6.499999999999994,16.999999999999993,0.0));
#215=DIRECTION('',(0.0,0.0,1.0));
#216=VECTOR('',#215,12.000000000000002);
#217=LINE('',#214,#216);
#218=EDGE_CURVE('',#206,#196,#217,.T.);
#219=ORIENTED_EDGE('',*,*,#218,.T.);
#220=EDGE_LOOP('',(#203,#204,#213,#219));
#221=FACE_OUTER_BOUND('',#220,.T.);
#222=ADVANCED_FACE('',(#221),#194,.F.);
#223=CARTESIAN_POINT('',(6.499999999999994,16.999999999999993,0.0));
#224=DIRECTION('',(0.0,1.0,0.0));
#225=DIRECTION('',(0.0,0.0,1.0));
#226=AXIS2_PLACEMENT_3D('',#223,#224,#225);
#227=PLANE('',#226);
#228=CARTESIAN_POINT('',(6.499999999999993,16.999999999999993,12.000000000000002));
#229=DIRECTION('',(1.0,0.0,0.0));
#230=VECTOR('',#229,16.000000000000007);
#231=LINE('',#228,#230);
#232=EDGE_CURVE('',#196,#123,#231,.T.);
#233=ORIENTED_EDGE('',*,*,#232,.F.);
#234=ORIENTED_EDGE('',*,*,#218,.F.);
#235=CARTESIAN_POINT('',(22.500000000000000,17.000000000000004,0.0));
#236=DIRECTION('',(-1.0,0.0,0.0));
#237=VECTOR('',#236,16.000000000000007);
#238=LINE('',#235,#237);
#239=EDGE_CURVE('',#134,#206,#238,.T.);
#240=ORIENTED_EDGE('',*,*,#239,.F.);
#241=ORIENTED_EDGE('',*,*,#139,.T.);
#242=EDGE_LOOP('',(#233,#234,#240,#241));
#243=FACE_OUTER_BOUND('',#242,.T.);
#244=ADVANCED_FACE('',(#243),#227,.F.);
#245=CARTESIAN_POINT('',(0.0,0.0,0.0));
#246=DIRECTION('',(-1.0,0.0,0.0));
#247=DIRECTION('',(0.0,0.0,1.0));
#248=AXIS2_PLACEMENT_3D('',#245,#246,#247);
#249=PLANE('',#248);
#250=CARTESIAN_POINT('',(0.0,0.0,12.000000000000002));
#251=VERTEX_POINT('',#250);
#252=CARTESIAN_POINT('',(-4.440892E-015,19.999999999999996,12.000000000000002));
#253=VERTEX_POINT('',#252);
#254=CARTESIAN_POINT('',(0.0,0.0,12.000000000000002));
#255=DIRECTION('',(0.0,1.0,0.0));
#256=VECTOR('',#255,19.999999999999996);
#257=LINE('',#254,#256);
#258=EDGE_CURVE('',#251,#253,#257,.T.);
#259=ORIENTED_EDGE('',*,*,#258,.T.);
#260=CARTESIAN_POINT('',(-4.440892E-015,19.999999999999996,0.0));
#261=VERTEX_POINT('',#260);
#262=CARTESIAN_POINT('',(-4.440892E-015,19.999999999999996,0.0));
#263=DIRECTION('',(0.0,0.0,1.0));
#264=VECTOR('',#263,12.000000000000002);
#265=LINE('',#262,#264);
#266=EDGE_CURVE('',#261,#253,#265,.T.);
#267=ORIENTED_EDGE('',*,*,#266,.F.);
#268=CARTESIAN_POINT('',(0.0,0.0,0.0));
#269=VERTEX_POINT('',#268);
#270=CARTESIAN_POINT('',(-4.440892E-015,19.999999999999996,0.0));
#271=DIRECTION('',(0.0,-1.0,0.0));
#272=VECTOR('',#271,19.999999999999996);
#273=LINE('',#270,#272);
#274=EDGE_CURVE('',#261,#269,#273,.T.);
#275=ORIENTED_EDGE('',*,*,#274,.T.);
#276=CARTESIAN_POINT('',(0.0,0.0,0.0));
#277=DIRECTION('',(0.0,0.0,1.0));
#278=VECTOR('',#277,12.000000000000002);
#279=LINE('',#276,#278);
#280=EDGE_CURVE('',#269,#251,#279,.T.);
#281=ORIENTED_EDGE('',*,*,#280,.T.);
#282=EDGE_LOOP('',(#259,#267,#275,#281));
#283=FACE_OUTER_BOUND('',#282,.T.);
#284=ORIENTED_EDGE('',*,*,#101,.T.);
#285=EDGE_LOOP('',(#284));
#286=FACE_BOUND('',#285,.T.);
#287=ADVANCED_FACE('',(#283,#286),#249,.T.);
#288=CARTESIAN_POINT('',(-4.440892E-015,19.999999999999996,0.0));
#289=DIRECTION('',(0.0,1.0,0.0));
#290=DIRECTION('',(0.0,0.0,1.0));
#291=AXIS2_PLACEMENT_3D('',#288,#289,#290);
#292=PLANE('',#291);
#293=CARTESIAN_POINT('',(28.999999999999993,20.0,12.000000000000002));
#294=VERTEX_POINT('',#293);
#295=CARTESIAN_POINT('',(-7.105427E-015,19.999999999999996,12.000000000000002));
#296=DIRECTION('',(1.0,0.0,0.0));
#297=VECTOR('',#296,29.0);
#298=LINE('',#295,#297);
#299=EDGE_CURVE('',#253,#294,#298,.T.);
#300=ORIENTED_EDGE('',*,*,#299,.T.);
#301=CARTESIAN_POINT('',(28.999999999999993,20.0,0.0));
#302=VERTEX_POINT('',#301);
#303=CARTESIAN_POINT('',(28.999999999999993,20.0,0.0));
#304=DIRECTION('',(0.0,0.0,1.0));
#305=VECTOR('',#304,12.000000000000002);
#306=LINE('',#303,#305);
#307=EDGE_CURVE('',#302,#294,#306,.T.);
#308=ORIENTED_EDGE('',*,*,#307,.F.);
#309=CARTESIAN_POINT('',(28.999999999999993,20.0,0.0));
#310=DIRECTION('',(-1.0,0.0,0.0));
#311=VECTOR('',#310,29.0);
#312=LINE('',#309,#311);
#313=EDGE_CURVE('',#302,#261,#312,.T.);
#314=ORIENTED_EDGE('',*,*,#313,.T.);
#315=ORIENTED_EDGE('',*,*,#266,.T.);
#316=EDGE_LOOP('',(#300,#308,#314,#315));
#317=FACE_OUTER_BOUND('',#316,.T.);
#318=ADVANCED_FACE('',(#317),#292,.T.);
#319=CARTESIAN_POINT('',(28.999999999999993,20.0,0.0));
#320=DIRECTION('',(1.0,0.0,0.0));
#321=DIRECTION('',(0.0,0.0,-1.0));
#322=AXIS2_PLACEMENT_3D('',#319,#320,#321);
#323=PLANE('',#322);
#324=CARTESIAN_POINT('',(29.000000000000004,0.0,12.000000000000002));
#325=VERTEX_POINT('',#324);
#326=CARTESIAN_POINT('',(28.999999999999993,20.0,12.000000000000002));
#327=DIRECTION('',(0.0,-1.0,0.0));
#328=VECTOR('',#327,20.0);
#329=LINE('',#326,#328);
#330=EDGE_CURVE('',#294,#325,#329,.T.);
#331=ORIENTED_EDGE('',*,*,#330,.T.);
#332=CARTESIAN_POINT('',(29.000000000000004,0.0,0.0));
#333=VERTEX_POINT('',#332);
#334=CARTESIAN_POINT('',(29.000000000000004,0.0,0.0));
#335=DIRECTION('',(0.0,0.0,1.0));
#336=VECTOR('',#335,12.000000000000002);
#337=LINE('',#334,#336);
#338=EDGE_CURVE('',#333,#325,#337,.T.);
#339=ORIENTED_EDGE('',*,*,#338,.F.);
#340=CARTESIAN_POINT('',(29.000000000000004,0.0,0.0));
#341=DIRECTION('',(0.0,1.0,0.0));
#342=VECTOR('',#341,20.0);
#343=LINE('',#340,#342);
#344=EDGE_CURVE('',#333,#302,#343,.T.);
#345=ORIENTED_EDGE('',*,*,#344,.T.);
#346=ORIENTED_EDGE('',*,*,#307,.T.);
#347=EDGE_LOOP('',(#331,#339,#345,#346));
#348=FACE_OUTER_BOUND('',#347,.T.);
#349=ORIENTED_EDGE('',*,*,#112,.T.);
#350=EDGE_LOOP('',(#349));
#351=FACE_BOUND('',#350,.T.);
#352=ADVANCED_FACE('',(#348,#351),#323,.T.);
#353=CARTESIAN_POINT('',(29.000000000000004,0.0,0.0));
#354=DIRECTION('',(0.0,-1.0,0.0));
#355=DIRECTION('',(0.0,0.0,-1.0));
#356=AXIS2_PLACEMENT_3D('',#353,#354,#355);
#357=PLANE('',#356);
#358=CARTESIAN_POINT('',(29.000000000000004,0.0,12.000000000000002));
#359=DIRECTION('',(-1.0,0.0,0.0));
#360=VECTOR('',#359,29.000000000000004);
#361=LINE('',#358,#360);
#362=EDGE_CURVE('',#325,#251,#361,.T.);
#363=ORIENTED_EDGE('',*,*,#362,.T.);
#364=ORIENTED_EDGE('',*,*,#280,.F.);
#365=CARTESIAN_POINT('',(0.0,0.0,0.0));
#366=DIRECTION('',(1.0,0.0,0.0));
#367=VECTOR('',#366,29.000000000000004);
#368=LINE('',#365,#367);
#369=EDGE_CURVE('',#269,#333,#368,.T.);
#370=ORIENTED_EDGE('',*,*,#369,.T.);
#371=ORIENTED_EDGE('',*,*,#338,.T.);
#372=EDGE_LOOP('',(#363,#364,#370,#371));
#373=FACE_OUTER_BOUND('',#372,.T.);
#374=ADVANCED_FACE('',(#373),#357,.T.);
#375=CARTESIAN_POINT('',(14.499999999999996,9.999999999999998,0.0));
#376=DIRECTION('',(0.0,0.0,1.0));
#377=DIRECTION('',(1.0,0.0,0.0));
#378=AXIS2_PLACEMENT_3D('',#375,#376,#377);
#379=PLANE('',#378);
#380=ORIENTED_EDGE('',*,*,#369,.F.);
#381=ORIENTED_EDGE('',*,*,#274,.F.);
#382=ORIENTED_EDGE('',*,*,#313,.F.);
#383=ORIENTED_EDGE('',*,*,#344,.F.);
#384=EDGE_LOOP('',(#380,#381,#382,#383));
#385=FACE_OUTER_BOUND('',#384,.T.);
#386=ORIENTED_EDGE('',*,*,#148,.T.);
#387=ORIENTED_EDGE('',*,*,#239,.T.);
#388=ORIENTED_EDGE('',*,*,#212,.T.);
#389=ORIENTED_EDGE('',*,*,#179,.T.);
#390=EDGE_LOOP('',(#386,#387,#388,#389));
#391=FACE_BOUND('',#390,.T.);
#392=ADVANCED_FACE('',(#385,#391),#379,.F.);
#393=CARTESIAN_POINT('',(14.499999999999996,9.999999999999998,12.000000000000002));
#394=DIRECTION('',(0.0,0.0,1.0));
#395=DIRECTION('',(1.0,0.0,0.0));
#396=AXIS2_PLACEMENT_3D('',#393,#394,#395);
#397=PLANE('',#396);
#398=ORIENTED_EDGE('',*,*,#258,.F.);
#399=ORIENTED_EDGE('',*,*,#362,.F.);
#400=ORIENTED_EDGE('',*,*,#330,.F.);
#401=ORIENTED_EDGE('',*,*,#299,.F.);
#402=EDGE_LOOP('',(#398,#399,#400,#401));
#403=FACE_OUTER_BOUND('',#402,.T.);
#404=ORIENTED_EDGE('',*,*,#131,.T.);
#405=ORIENTED_EDGE('',*,*,#170,.T.);
#406=ORIENTED_EDGE('',*,*,#202,.T.);
#407=ORIENTED_EDGE('',*,*,#232,.T.);
#408=EDGE_LOOP('',(#404,#405,#406,#407));
#409=FACE_BOUND('',#408,.T.);
#410=ADVANCED_FACE('',(#403,#409),#397,.T.);
#411=CLOSED_SHELL('',(#116,#158,#189,#222,#244,#287,#318,#352,#374,#392,#410));
#412=MANIFOLD_SOLID_BREP('T\X2\011B\X0\leso1',#411);
#413=COLOUR_RGB('Kov-AL-6061 (matn\X2\FFFD\X0\)',0.847059011459351,0.839215993881226,0.839215993881226);
#414=FILL_AREA_STYLE_COLOUR('Kov-AL-6061 (matn\X2\FFFD\X0\)',#413);
#415=FILL_AREA_STYLE('Kov-AL-6061 (matn\X2\FFFD\X0\)',(#414));
#416=SURFACE_STYLE_FILL_AREA(#415);
#417=SURFACE_SIDE_STYLE('Kov-AL-6061 (matn\X2\FFFD\X0\)',(#416));
#418=SURFACE_STYLE_USAGE(.BOTH.,#417);
#419=PRESENTATION_STYLE_ASSIGNMENT((#418));
#420=STYLED_ITEM('',(#419),#412);
#421=MECHANICAL_DESIGN_GEOMETRIC_PRESENTATION_REPRESENTATION('',(#420),#36);
#422=ADVANCED_BREP_SHAPE_REPRESENTATION('ABSR',(#412),#36);
#423=SHAPE_REPRESENTATION_RELATIONSHIP('SRR','None',#422,#41);
ENDSEC;
END-ISO-10303-21;
