ISO-10303-21;
HEADER;
/* Generated by software containing ST-Developer
 * from STEP Tools, Inc. (www.steptools.com) 
 */

FILE_DESCRIPTION(
/* description */ ('Gumov\X\E9 t\X2\011B\X0\sn\X2\011B\X0\n\X\ED panel
 4 mm'),
/* implementation_level */ '2;1');

FILE_NAME(
/* name */ 'C:\\Vault_pracovn\X\ED\\Zak\X\E1zky\\Kal\X\E1b_pokus\\7000
04.stp',
/* time_stamp */ '2014-08-19T08:57:18+02:00',
/* author */ ('jank'),
/* organization */ (''),
/* preprocessor_version */ 'ST-DEVELOPER v15.2',
/* originating_system */ 'Autodesk Inventor 2014',
/* authorisation */ '');

FILE_SCHEMA (('CONFIG_CONTROL_DESIGN'));
ENDSEC;

DATA;
#10=SHAPE_REPRESENTATION_RELATIONSHIP('SRR','None',#548,#11);
#11=ADVANCED_BREP_SHAPE_REPRESENTATION($,(#329),#539);
#12=STYLED_ITEM($,(#556),#329);
#13=CIRCLE($,#339,1.);
#14=CIRCLE($,#340,1.);
#15=CIRCLE($,#343,6.641529);
#16=CIRCLE($,#344,6.641529);
#17=CIRCLE($,#346,0.5);
#18=CIRCLE($,#347,0.5);
#19=CIRCLE($,#351,1.);
#20=CIRCLE($,#352,1.);
#21=CYLINDRICAL_SURFACE($,#338,1.);
#22=CYLINDRICAL_SURFACE($,#342,6.641529);
#23=CYLINDRICAL_SURFACE($,#345,0.5);
#24=CYLINDRICAL_SURFACE($,#350,1.);
#25=FACE_OUTER_BOUND($,#42,.T.);
#26=FACE_OUTER_BOUND($,#43,.T.);
#27=FACE_OUTER_BOUND($,#44,.T.);
#28=FACE_OUTER_BOUND($,#45,.T.);
#29=FACE_OUTER_BOUND($,#46,.T.);
#30=FACE_OUTER_BOUND($,#47,.T.);
#31=FACE_OUTER_BOUND($,#48,.T.);
#32=FACE_OUTER_BOUND($,#49,.T.);
#33=FACE_OUTER_BOUND($,#50,.T.);
#34=FACE_OUTER_BOUND($,#51,.T.);
#35=FACE_OUTER_BOUND($,#52,.T.);
#36=FACE_OUTER_BOUND($,#53,.T.);
#37=FACE_OUTER_BOUND($,#54,.T.);
#38=FACE_OUTER_BOUND($,#55,.T.);
#39=FACE_OUTER_BOUND($,#56,.T.);
#40=FACE_OUTER_BOUND($,#57,.T.);
#41=FACE_OUTER_BOUND($,#58,.T.);
#42=EDGE_LOOP($,(#208,#209,#210,#211));
#43=EDGE_LOOP($,(#212,#213,#214,#215));
#44=EDGE_LOOP($,(#216,#217,#218,#219));
#45=EDGE_LOOP($,(#220,#221,#222,#223));
#46=EDGE_LOOP($,(#224,#225,#226,#227));
#47=EDGE_LOOP($,(#228,#229,#230,#231));
#48=EDGE_LOOP($,(#232,#233,#234,#235));
#49=EDGE_LOOP($,(#236,#237,#238,#239));
#50=EDGE_LOOP($,(#240,#241,#242,#243));
#51=EDGE_LOOP($,(#244,#245,#246,#247));
#52=EDGE_LOOP($,(#248,#249,#250,#251));
#53=EDGE_LOOP($,(#252,#253,#254,#255));
#54=EDGE_LOOP($,(#256,#257,#258,#259));
#55=EDGE_LOOP($,(#260,#261,#262,#263));
#56=EDGE_LOOP($,(#264,#265,#266,#267));
#57=EDGE_LOOP($,(#268,#269,#270,#271,#272,#273,#274,#275,#276,#277,#278,
#279,#280,#281,#282));
#58=EDGE_LOOP($,(#283,#284,#285,#286,#287,#288,#289,#290,#291,#292,#293,
#294,#295,#296,#297));
#59=LINE($,#449,#96);
#60=LINE($,#451,#97);
#61=LINE($,#453,#98);
#62=LINE($,#454,#99);
#63=LINE($,#457,#100);
#64=LINE($,#459,#101);
#65=LINE($,#460,#102);
#66=LINE($,#463,#103);
#67=LINE($,#465,#104);
#68=LINE($,#466,#105);
#69=LINE($,#469,#106);
#70=LINE($,#471,#107);
#71=LINE($,#472,#108);
#72=LINE($,#475,#109);
#73=LINE($,#477,#110);
#74=LINE($,#478,#111);
#75=LINE($,#481,#112);
#76=LINE($,#483,#113);
#77=LINE($,#484,#114);
#78=LINE($,#487,#115);
#79=LINE($,#489,#116);
#80=LINE($,#490,#117);
#81=LINE($,#495,#118);
#82=LINE($,#499,#119);
#83=LINE($,#501,#120);
#84=LINE($,#502,#121);
#85=LINE($,#507,#122);
#86=LINE($,#513,#123);
#87=LINE($,#517,#124);
#88=LINE($,#519,#125);
#89=LINE($,#520,#126);
#90=LINE($,#523,#127);
#91=LINE($,#525,#128);
#92=LINE($,#526,#129);
#93=LINE($,#531,#130);
#94=LINE($,#534,#131);
#95=LINE($,#535,#132);
#96=VECTOR($,#360,1.00000078751693);
#97=VECTOR($,#361,100.);
#98=VECTOR($,#362,1.00000078751693);
#99=VECTOR($,#363,100.);
#100=VECTOR($,#366,5.38516374157494);
#101=VECTOR($,#367,100.);
#102=VECTOR($,#368,5.38516374157494);
#103=VECTOR($,#371,0.999999999999999);
#104=VECTOR($,#372,100.);
#105=VECTOR($,#373,0.999999999999999);
#106=VECTOR($,#376,0.999998750978883);
#107=VECTOR($,#377,100.);
#108=VECTOR($,#378,0.999998750978883);
#109=VECTOR($,#381,4.3000004956074);
#110=VECTOR($,#382,100.);
#111=VECTOR($,#383,4.3000004956074);
#112=VECTOR($,#386,2.);
#113=VECTOR($,#387,100.);
#114=VECTOR($,#388,2.);
#115=VECTOR($,#391,1.);
#116=VECTOR($,#392,100.);
#117=VECTOR($,#393,1.);
#118=VECTOR($,#398,100.);
#119=VECTOR($,#403,0.999999386686371);
#120=VECTOR($,#404,100.);
#121=VECTOR($,#405,0.999999386686371);
#122=VECTOR($,#410,100.);
#123=VECTOR($,#417,100.);
#124=VECTOR($,#422,3.92730867904714);
#125=VECTOR($,#423,100.);
#126=VECTOR($,#424,3.92730867904714);
#127=VECTOR($,#427,7.408699);
#128=VECTOR($,#428,100.);
#129=VECTOR($,#429,7.408699);
#130=VECTOR($,#434,100.);
#131=VECTOR($,#439,2.00000043235776);
#132=VECTOR($,#440,2.00000043235776);
#133=VERTEX_POINT($,#447);
#134=VERTEX_POINT($,#448);
#135=VERTEX_POINT($,#450);
#136=VERTEX_POINT($,#452);
#137=VERTEX_POINT($,#456);
#138=VERTEX_POINT($,#458);
#139=VERTEX_POINT($,#462);
#140=VERTEX_POINT($,#464);
#141=VERTEX_POINT($,#468);
#142=VERTEX_POINT($,#470);
#143=VERTEX_POINT($,#474);
#144=VERTEX_POINT($,#476);
#145=VERTEX_POINT($,#480);
#146=VERTEX_POINT($,#482);
#147=VERTEX_POINT($,#486);
#148=VERTEX_POINT($,#488);
#149=VERTEX_POINT($,#492);
#150=VERTEX_POINT($,#494);
#151=VERTEX_POINT($,#498);
#152=VERTEX_POINT($,#500);
#153=VERTEX_POINT($,#504);
#154=VERTEX_POINT($,#506);
#155=VERTEX_POINT($,#510);
#156=VERTEX_POINT($,#512);
#157=VERTEX_POINT($,#516);
#158=VERTEX_POINT($,#518);
#159=VERTEX_POINT($,#522);
#160=VERTEX_POINT($,#524);
#161=VERTEX_POINT($,#528);
#162=VERTEX_POINT($,#530);
#163=EDGE_CURVE($,#133,#134,#59,.T.);
#164=EDGE_CURVE($,#135,#134,#60,.T.);
#165=EDGE_CURVE($,#136,#135,#61,.T.);
#166=EDGE_CURVE($,#136,#133,#62,.T.);
#167=EDGE_CURVE($,#134,#137,#63,.T.);
#168=EDGE_CURVE($,#138,#137,#64,.T.);
#169=EDGE_CURVE($,#135,#138,#65,.T.);
#170=EDGE_CURVE($,#137,#139,#66,.T.);
#171=EDGE_CURVE($,#140,#139,#67,.T.);
#172=EDGE_CURVE($,#138,#140,#68,.T.);
#173=EDGE_CURVE($,#139,#141,#69,.T.);
#174=EDGE_CURVE($,#142,#141,#70,.T.);
#175=EDGE_CURVE($,#140,#142,#71,.T.);
#176=EDGE_CURVE($,#141,#143,#72,.T.);
#177=EDGE_CURVE($,#144,#143,#73,.T.);
#178=EDGE_CURVE($,#142,#144,#74,.T.);
#179=EDGE_CURVE($,#143,#145,#75,.T.);
#180=EDGE_CURVE($,#146,#145,#76,.T.);
#181=EDGE_CURVE($,#144,#146,#77,.T.);
#182=EDGE_CURVE($,#145,#147,#78,.T.);
#183=EDGE_CURVE($,#148,#147,#79,.T.);
#184=EDGE_CURVE($,#146,#148,#80,.T.);
#185=EDGE_CURVE($,#147,#149,#13,.T.);
#186=EDGE_CURVE($,#150,#149,#81,.T.);
#187=EDGE_CURVE($,#148,#150,#14,.T.);
#188=EDGE_CURVE($,#149,#151,#82,.T.);
#189=EDGE_CURVE($,#152,#151,#83,.T.);
#190=EDGE_CURVE($,#150,#152,#84,.T.);
#191=EDGE_CURVE($,#151,#153,#15,.T.);
#192=EDGE_CURVE($,#154,#153,#85,.T.);
#193=EDGE_CURVE($,#152,#154,#16,.T.);
#194=EDGE_CURVE($,#153,#155,#17,.T.);
#195=EDGE_CURVE($,#156,#155,#86,.T.);
#196=EDGE_CURVE($,#154,#156,#18,.T.);
#197=EDGE_CURVE($,#155,#157,#87,.T.);
#198=EDGE_CURVE($,#158,#157,#88,.T.);
#199=EDGE_CURVE($,#156,#158,#89,.T.);
#200=EDGE_CURVE($,#157,#159,#90,.T.);
#201=EDGE_CURVE($,#160,#159,#91,.T.);
#202=EDGE_CURVE($,#158,#160,#92,.T.);
#203=EDGE_CURVE($,#159,#161,#19,.T.);
#204=EDGE_CURVE($,#162,#161,#93,.T.);
#205=EDGE_CURVE($,#160,#162,#20,.T.);
#206=EDGE_CURVE($,#161,#133,#94,.T.);
#207=EDGE_CURVE($,#162,#136,#95,.T.);
#208=ORIENTED_EDGE($,*,*,#163,.T.);
#209=ORIENTED_EDGE($,*,*,#164,.F.);
#210=ORIENTED_EDGE($,*,*,#165,.F.);
#211=ORIENTED_EDGE($,*,*,#166,.T.);
#212=ORIENTED_EDGE($,*,*,#167,.T.);
#213=ORIENTED_EDGE($,*,*,#168,.F.);
#214=ORIENTED_EDGE($,*,*,#169,.F.);
#215=ORIENTED_EDGE($,*,*,#164,.T.);
#216=ORIENTED_EDGE($,*,*,#170,.T.);
#217=ORIENTED_EDGE($,*,*,#171,.F.);
#218=ORIENTED_EDGE($,*,*,#172,.F.);
#219=ORIENTED_EDGE($,*,*,#168,.T.);
#220=ORIENTED_EDGE($,*,*,#173,.T.);
#221=ORIENTED_EDGE($,*,*,#174,.F.);
#222=ORIENTED_EDGE($,*,*,#175,.F.);
#223=ORIENTED_EDGE($,*,*,#171,.T.);
#224=ORIENTED_EDGE($,*,*,#176,.T.);
#225=ORIENTED_EDGE($,*,*,#177,.F.);
#226=ORIENTED_EDGE($,*,*,#178,.F.);
#227=ORIENTED_EDGE($,*,*,#174,.T.);
#228=ORIENTED_EDGE($,*,*,#179,.T.);
#229=ORIENTED_EDGE($,*,*,#180,.F.);
#230=ORIENTED_EDGE($,*,*,#181,.F.);
#231=ORIENTED_EDGE($,*,*,#177,.T.);
#232=ORIENTED_EDGE($,*,*,#182,.T.);
#233=ORIENTED_EDGE($,*,*,#183,.F.);
#234=ORIENTED_EDGE($,*,*,#184,.F.);
#235=ORIENTED_EDGE($,*,*,#180,.T.);
#236=ORIENTED_EDGE($,*,*,#185,.T.);
#237=ORIENTED_EDGE($,*,*,#186,.F.);
#238=ORIENTED_EDGE($,*,*,#187,.F.);
#239=ORIENTED_EDGE($,*,*,#183,.T.);
#240=ORIENTED_EDGE($,*,*,#188,.T.);
#241=ORIENTED_EDGE($,*,*,#189,.F.);
#242=ORIENTED_EDGE($,*,*,#190,.F.);
#243=ORIENTED_EDGE($,*,*,#186,.T.);
#244=ORIENTED_EDGE($,*,*,#191,.T.);
#245=ORIENTED_EDGE($,*,*,#192,.F.);
#246=ORIENTED_EDGE($,*,*,#193,.F.);
#247=ORIENTED_EDGE($,*,*,#189,.T.);
#248=ORIENTED_EDGE($,*,*,#194,.T.);
#249=ORIENTED_EDGE($,*,*,#195,.F.);
#250=ORIENTED_EDGE($,*,*,#196,.F.);
#251=ORIENTED_EDGE($,*,*,#192,.T.);
#252=ORIENTED_EDGE($,*,*,#197,.T.);
#253=ORIENTED_EDGE($,*,*,#198,.F.);
#254=ORIENTED_EDGE($,*,*,#199,.F.);
#255=ORIENTED_EDGE($,*,*,#195,.T.);
#256=ORIENTED_EDGE($,*,*,#200,.T.);
#257=ORIENTED_EDGE($,*,*,#201,.F.);
#258=ORIENTED_EDGE($,*,*,#202,.F.);
#259=ORIENTED_EDGE($,*,*,#198,.T.);
#260=ORIENTED_EDGE($,*,*,#203,.T.);
#261=ORIENTED_EDGE($,*,*,#204,.F.);
#262=ORIENTED_EDGE($,*,*,#205,.F.);
#263=ORIENTED_EDGE($,*,*,#201,.T.);
#264=ORIENTED_EDGE($,*,*,#206,.T.);
#265=ORIENTED_EDGE($,*,*,#166,.F.);
#266=ORIENTED_EDGE($,*,*,#207,.F.);
#267=ORIENTED_EDGE($,*,*,#204,.T.);
#268=ORIENTED_EDGE($,*,*,#185,.F.);
#269=ORIENTED_EDGE($,*,*,#182,.F.);
#270=ORIENTED_EDGE($,*,*,#179,.F.);
#271=ORIENTED_EDGE($,*,*,#176,.F.);
#272=ORIENTED_EDGE($,*,*,#173,.F.);
#273=ORIENTED_EDGE($,*,*,#170,.F.);
#274=ORIENTED_EDGE($,*,*,#167,.F.);
#275=ORIENTED_EDGE($,*,*,#163,.F.);
#276=ORIENTED_EDGE($,*,*,#206,.F.);
#277=ORIENTED_EDGE($,*,*,#203,.F.);
#278=ORIENTED_EDGE($,*,*,#200,.F.);
#279=ORIENTED_EDGE($,*,*,#197,.F.);
#280=ORIENTED_EDGE($,*,*,#194,.F.);
#281=ORIENTED_EDGE($,*,*,#191,.F.);
#282=ORIENTED_EDGE($,*,*,#188,.F.);
#283=ORIENTED_EDGE($,*,*,#187,.T.);
#284=ORIENTED_EDGE($,*,*,#190,.T.);
#285=ORIENTED_EDGE($,*,*,#193,.T.);
#286=ORIENTED_EDGE($,*,*,#196,.T.);
#287=ORIENTED_EDGE($,*,*,#199,.T.);
#288=ORIENTED_EDGE($,*,*,#202,.T.);
#289=ORIENTED_EDGE($,*,*,#205,.T.);
#290=ORIENTED_EDGE($,*,*,#207,.T.);
#291=ORIENTED_EDGE($,*,*,#165,.T.);
#292=ORIENTED_EDGE($,*,*,#169,.T.);
#293=ORIENTED_EDGE($,*,*,#172,.T.);
#294=ORIENTED_EDGE($,*,*,#175,.T.);
#295=ORIENTED_EDGE($,*,*,#178,.T.);
#296=ORIENTED_EDGE($,*,*,#181,.T.);
#297=ORIENTED_EDGE($,*,*,#184,.T.);
#298=PLANE($,#331);
#299=PLANE($,#332);
#300=PLANE($,#333);
#301=PLANE($,#334);
#302=PLANE($,#335);
#303=PLANE($,#336);
#304=PLANE($,#337);
#305=PLANE($,#341);
#306=PLANE($,#348);
#307=PLANE($,#349);
#308=PLANE($,#353);
#309=PLANE($,#354);
#310=PLANE($,#355);
#311=ADVANCED_FACE($,(#25),#298,.T.);
#312=ADVANCED_FACE($,(#26),#299,.T.);
#313=ADVANCED_FACE($,(#27),#300,.T.);
#314=ADVANCED_FACE($,(#28),#301,.T.);
#315=ADVANCED_FACE($,(#29),#302,.T.);
#316=ADVANCED_FACE($,(#30),#303,.T.);
#317=ADVANCED_FACE($,(#31),#304,.T.);
#318=ADVANCED_FACE($,(#32),#21,.T.);
#319=ADVANCED_FACE($,(#33),#305,.T.);
#320=ADVANCED_FACE($,(#34),#22,.F.);
#321=ADVANCED_FACE($,(#35),#23,.T.);
#322=ADVANCED_FACE($,(#36),#306,.T.);
#323=ADVANCED_FACE($,(#37),#307,.T.);
#324=ADVANCED_FACE($,(#38),#24,.T.);
#325=ADVANCED_FACE($,(#39),#308,.T.);
#326=ADVANCED_FACE($,(#40),#309,.T.);
#327=ADVANCED_FACE($,(#41),#310,.F.);
#328=CLOSED_SHELL($,(#311,#312,#313,#314,#315,#316,#317,#318,#319,#320,
#321,#322,#323,#324,#325,#326,#327));
#329=MANIFOLD_SOLID_BREP('T\X2\011B\X0\leso1',#328);
#330=AXIS2_PLACEMENT_3D('placement',#445,#356,#357);
#331=AXIS2_PLACEMENT_3D($,#446,#358,#359);
#332=AXIS2_PLACEMENT_3D($,#455,#364,#365);
#333=AXIS2_PLACEMENT_3D($,#461,#369,#370);
#334=AXIS2_PLACEMENT_3D($,#467,#374,#375);
#335=AXIS2_PLACEMENT_3D($,#473,#379,#380);
#336=AXIS2_PLACEMENT_3D($,#479,#384,#385);
#337=AXIS2_PLACEMENT_3D($,#485,#389,#390);
#338=AXIS2_PLACEMENT_3D($,#491,#394,#395);
#339=AXIS2_PLACEMENT_3D($,#493,#396,#397);
#340=AXIS2_PLACEMENT_3D($,#496,#399,#400);
#341=AXIS2_PLACEMENT_3D($,#497,#401,#402);
#342=AXIS2_PLACEMENT_3D($,#503,#406,#407);
#343=AXIS2_PLACEMENT_3D($,#505,#408,#409);
#344=AXIS2_PLACEMENT_3D($,#508,#411,#412);
#345=AXIS2_PLACEMENT_3D($,#509,#413,#414);
#346=AXIS2_PLACEMENT_3D($,#511,#415,#416);
#347=AXIS2_PLACEMENT_3D($,#514,#418,#419);
#348=AXIS2_PLACEMENT_3D($,#515,#420,#421);
#349=AXIS2_PLACEMENT_3D($,#521,#425,#426);
#350=AXIS2_PLACEMENT_3D($,#527,#430,#431);
#351=AXIS2_PLACEMENT_3D($,#529,#432,#433);
#352=AXIS2_PLACEMENT_3D($,#532,#435,#436);
#353=AXIS2_PLACEMENT_3D($,#533,#437,#438);
#354=AXIS2_PLACEMENT_3D($,#536,#441,#442);
#355=AXIS2_PLACEMENT_3D($,#537,#443,#444);
#356=DIRECTION('axis',(0.,0.,1.));
#357=DIRECTION('refdir',(1.,0.,0.));
#358=DIRECTION('center_axis',(-3.10948004494461E-007,-0.999999999999952,
0.));
#359=DIRECTION('ref_axis',(0.,0.,-1.));
#360=DIRECTION($,(-0.999999999999952,3.10948004494461E-007,0.));
#361=DIRECTION($,(0.,0.,1.));
#362=DIRECTION($,(-0.999999999999952,3.10948004494461E-007,0.));
#363=DIRECTION($,(0.,0.,1.));
#364=DIRECTION('center_axis',(-0.928476795914748,-0.371390413780275,0.));
#365=DIRECTION('ref_axis',(0.,0.,1.));
#366=DIRECTION($,(-0.371390413780275,0.928476795914748,0.));
#367=DIRECTION($,(0.,0.,1.));
#368=DIRECTION($,(-0.371390413780275,0.928476795914748,0.));
#369=DIRECTION('center_axis',(-0.999999999999952,3.10948004983436E-007,
0.));
#370=DIRECTION('ref_axis',(0.,0.,1.));
#371=DIRECTION($,(3.10948004983436E-007,0.999999999999952,0.));
#372=DIRECTION($,(0.,0.,1.));
#373=DIRECTION($,(3.10948004983436E-007,0.999999999999952,0.));
#374=DIRECTION('center_axis',(3.1094800492478E-007,0.999999999999952,0.));
#375=DIRECTION('ref_axis',(0.,0.,1.));
#376=DIRECTION($,(0.999999999999952,-3.1094800492478E-007,0.));
#377=DIRECTION($,(0.,0.,1.));
#378=DIRECTION($,(0.999999999999952,-3.1094800492478E-007,0.));
#379=DIRECTION('center_axis',(-0.999999999999952,3.1094800495871E-007,0.));
#380=DIRECTION('ref_axis',(0.,0.,1.));
#381=DIRECTION($,(3.1094800495871E-007,0.999999999999952,0.));
#382=DIRECTION($,(0.,0.,1.));
#383=DIRECTION($,(3.1094800495871E-007,0.999999999999952,0.));
#384=DIRECTION('center_axis',(-3.10948004798369E-007,-0.999999999999952,
0.));
#385=DIRECTION('ref_axis',(0.,0.,-1.));
#386=DIRECTION($,(-0.999999999999952,3.10948004798369E-007,0.));
#387=DIRECTION($,(0.,0.,1.));
#388=DIRECTION($,(-0.999999999999952,3.10948004798369E-007,0.));
#389=DIRECTION('center_axis',(-0.999999999999952,3.10948004567102E-007,
0.));
#390=DIRECTION('ref_axis',(0.,0.,1.));
#391=DIRECTION($,(3.10948004567102E-007,0.999999999999952,0.));
#392=DIRECTION($,(0.,0.,1.));
#393=DIRECTION($,(3.10948004567102E-007,0.999999999999952,0.));
#394=DIRECTION('center_axis',(0.,0.,1.));
#395=DIRECTION('ref_axis',(3.10948004844658E-007,0.999999999999952,0.));
#396=DIRECTION('center_axis',(0.,0.,-1.));
#397=DIRECTION('ref_axis',(3.10948004844658E-007,0.999999999999952,0.));
#398=DIRECTION($,(0.,0.,1.));
#399=DIRECTION('center_axis',(0.,0.,-1.));
#400=DIRECTION('ref_axis',(3.10948004844658E-007,0.999999999999952,0.));
#401=DIRECTION('center_axis',(3.10948005150059E-007,0.999999999999952,0.));
#402=DIRECTION('ref_axis',(0.,0.,1.));
#403=DIRECTION($,(0.999999999999952,-3.10948005150059E-007,0.));
#404=DIRECTION($,(0.,0.,1.));
#405=DIRECTION($,(0.999999999999952,-3.10948005150059E-007,0.));
#406=DIRECTION('center_axis',(0.,0.,1.));
#407=DIRECTION('ref_axis',(-0.280688138405789,0.959799025295553,0.));
#408=DIRECTION('center_axis',(0.,0.,1.));
#409=DIRECTION('ref_axis',(-0.280688138405789,0.959799025295553,0.));
#410=DIRECTION($,(0.,0.,1.));
#411=DIRECTION('center_axis',(0.,0.,1.));
#412=DIRECTION('ref_axis',(-0.280688138405789,0.959799025295553,0.));
#413=DIRECTION('center_axis',(0.,0.,1.));
#414=DIRECTION('ref_axis',(0.858392209241162,-0.512993971810662,0.));
#415=DIRECTION('center_axis',(0.,0.,-1.));
#416=DIRECTION('ref_axis',(0.858392209241162,-0.512993971810662,0.));
#417=DIRECTION($,(0.,0.,1.));
#418=DIRECTION('center_axis',(0.,0.,-1.));
#419=DIRECTION('ref_axis',(0.858392209241162,-0.512993971810662,0.));
#420=DIRECTION('center_axis',(0.949758064258519,-0.31298501461877,0.));
#421=DIRECTION('ref_axis',(0.,0.,-1.));
#422=DIRECTION($,(-0.31298501461877,-0.949758064258519,0.));
#423=DIRECTION($,(0.,0.,1.));
#424=DIRECTION($,(-0.31298501461877,-0.949758064258519,0.));
#425=DIRECTION('center_axis',(0.999999999999952,-3.10948004975396E-007,
0.));
#426=DIRECTION('ref_axis',(0.,0.,-1.));
#427=DIRECTION($,(-3.10948004975396E-007,-0.999999999999952,0.));
#428=DIRECTION($,(0.,0.,1.));
#429=DIRECTION($,(-3.10948004975396E-007,-0.999999999999952,0.));
#430=DIRECTION('center_axis',(0.,0.,1.));
#431=DIRECTION('ref_axis',(-4.56001273685392E-007,-0.999999999999896,0.));
#432=DIRECTION('center_axis',(0.,0.,-1.));
#433=DIRECTION('ref_axis',(-4.56001273685392E-007,-0.999999999999896,0.));
#434=DIRECTION($,(0.,0.,1.));
#435=DIRECTION('center_axis',(0.,0.,-1.));
#436=DIRECTION('ref_axis',(-4.56001273685392E-007,-0.999999999999896,0.));
#437=DIRECTION('center_axis',(0.999999999999952,-3.10948005070315E-007,
0.));
#438=DIRECTION('ref_axis',(0.,0.,-1.));
#439=DIRECTION($,(-3.10948005070315E-007,-0.999999999999952,0.));
#440=DIRECTION($,(-3.10948005070315E-007,-0.999999999999952,0.));
#441=DIRECTION('center_axis',(0.,0.,1.));
#442=DIRECTION('ref_axis',(1.,0.,0.));
#443=DIRECTION('center_axis',(0.,0.,1.));
#444=DIRECTION('ref_axis',(1.,0.,0.));
#445=CARTESIAN_POINT('',(0.,0.,0.));
#446=CARTESIAN_POINT('Origin',(1.99999857018914,-10.3000000804441,0.));
#447=CARTESIAN_POINT('',(1.99999857018914,-10.3000000804441,100.));
#448=CARTESIAN_POINT('',(0.999997782672257,-10.2999997694959,100.));
#449=CARTESIAN_POINT($,(1.57499677791922,-10.2999999482907,100.));
#450=CARTESIAN_POINT('',(0.999997782672257,-10.2999997694959,0.));
#451=CARTESIAN_POINT($,(0.999997782672257,-10.2999997694959,0.));
#452=CARTESIAN_POINT('',(1.99999857018914,-10.3000000804441,0.));
#453=CARTESIAN_POINT($,(1.57499677791922,-10.2999999482907,0.));
#454=CARTESIAN_POINT($,(1.99999857018914,-10.3000000804441,0.));
#455=CARTESIAN_POINT('Origin',(0.999997782672257,-10.2999997694959,0.));
#456=CARTESIAN_POINT('',(-1.0000004075858,-5.3000001932421,100.));
#457=CARTESIAN_POINT($,(-0.273724655504004,-7.11569106253424,100.));
#458=CARTESIAN_POINT('',(-1.0000004075858,-5.3000001932421,0.));
#459=CARTESIAN_POINT($,(-1.0000004075858,-5.3000001932421,0.));
#460=CARTESIAN_POINT($,(-0.273724655504004,-7.11569106253424,0.));
#461=CARTESIAN_POINT('Origin',(-1.0000004075858,-5.3000001932421,0.));
#462=CARTESIAN_POINT('',(-1.00000009663779,-4.30000019324214,100.));
#463=CARTESIAN_POINT($,(-1.00000002704835,-4.07620250355647,100.));
#464=CARTESIAN_POINT('',(-1.00000009663779,-4.30000019324214,0.));
#465=CARTESIAN_POINT($,(-1.00000009663779,-4.30000019324214,0.));
#466=CARTESIAN_POINT($,(-1.00000002704835,-4.07620250355647,0.));
#467=CARTESIAN_POINT('Origin',(-1.00000009663779,-4.30000019324214,0.));
#468=CARTESIAN_POINT('',(-1.3456589572497E-006,-4.30000050418976,100.));
#469=CARTESIAN_POINT($,(0.0749983773496094,-4.30000052751078,100.));
#470=CARTESIAN_POINT('',(-1.3456589572497E-006,-4.30000050418976,0.));
#471=CARTESIAN_POINT($,(-1.3456589572497E-006,-4.30000050418976,0.));
#472=CARTESIAN_POINT($,(0.0749983773496094,-4.30000052751078,0.));
#473=CARTESIAN_POINT('Origin',(-1.3456589572497E-006,-4.30000050418976,
0.));
#474=CARTESIAN_POINT('',(-8.58238181911108E-009,-8.58256958258418E-009,
100.));
#475=CARTESIAN_POINT($,(-1.1205955097876E-006,-3.57620281450411,100.));
#476=CARTESIAN_POINT('',(-8.58238181911108E-009,-8.58256958258418E-009,
0.));
#477=CARTESIAN_POINT($,(-8.58238181911108E-009,-8.58256958258418E-009,0.));
#478=CARTESIAN_POINT($,(-1.1205955097876E-006,-3.57620281450411,0.));
#479=CARTESIAN_POINT('Origin',(-8.58238181911108E-009,-8.58256958258418E-009,
0.));
#480=CARTESIAN_POINT('',(-2.00000000858229,6.13313440014154E-007,100.));
#481=CARTESIAN_POINT($,(0.574999089915602,-1.87377391935861E-007,100.));
#482=CARTESIAN_POINT('',(-2.00000000858229,6.13313440014154E-007,0.));
#483=CARTESIAN_POINT($,(-2.00000000858229,6.13313440014154E-007,0.));
#484=CARTESIAN_POINT($,(0.574999089915602,-1.87377391935861E-007,0.));
#485=CARTESIAN_POINT('Origin',(-2.00000000858229,6.13313440014154E-007,
0.));
#486=CARTESIAN_POINT('',(-1.99999969763428,1.00000061331339,100.));
#487=CARTESIAN_POINT($,(-2.00000045205713,-1.42620194480451,100.));
#488=CARTESIAN_POINT('',(-1.99999969763428,1.00000061331339,0.));
#489=CARTESIAN_POINT($,(-1.99999969763428,1.00000061331339,0.));
#490=CARTESIAN_POINT($,(-2.00000045205713,-1.42620194480451,0.));
#491=CARTESIAN_POINT('Origin',(-0.999999697634328,1.00000030236539,0.));
#492=CARTESIAN_POINT('',(-0.999999386686323,2.00000030236534,100.));
#493=CARTESIAN_POINT('Origin',(-0.999999697634328,1.00000030236539,100.));
#494=CARTESIAN_POINT('',(-0.999999386686323,2.00000030236534,0.));
#495=CARTESIAN_POINT($,(-0.999999386686323,2.00000030236534,0.));
#496=CARTESIAN_POINT('Origin',(-0.999999697634328,1.00000030236539,0.));
#497=CARTESIAN_POINT('Origin',(-0.999999386686323,2.00000030236534,0.));
#498=CARTESIAN_POINT('',(-1.32991756310781E-015,1.99999999141752,100.));
#499=CARTESIAN_POINT($,(0.0749997118116363,1.99999996809651,100.));
#500=CARTESIAN_POINT('',(-1.32991756310781E-015,1.99999999141752,0.));
#501=CARTESIAN_POINT($,(-1.32991756310781E-015,1.99999999141752,0.));
#502=CARTESIAN_POINT($,(0.0749997118116363,1.99999996809651,0.));
#503=CARTESIAN_POINT('Origin',(-1.86419841117806,8.37453305208967,0.));
#504=CARTESIAN_POINT('',(3.55033215584917,4.52839652349779,100.));
#505=CARTESIAN_POINT('Origin',(-1.86419841117806,8.37453305208967,100.));
#506=CARTESIAN_POINT('',(3.55033215584917,4.52839652349779,0.));
#507=CARTESIAN_POINT($,(3.55033215584917,4.52839652349779,0.));
#508=CARTESIAN_POINT('Origin',(-1.86419841117806,8.37453305208967,0.));
#509=CARTESIAN_POINT('Origin',(3.7999946115101,4.0951891156279,0.));
#510=CARTESIAN_POINT('',(4.22919071613068,3.83869212972257,100.));
#511=CARTESIAN_POINT('Origin',(3.7999946115101,4.0951891156279,100.));
#512=CARTESIAN_POINT('',(4.22919071613068,3.83869212972257,0.));
#513=CARTESIAN_POINT($,(4.22919071613068,3.83869212972257,0.));
#514=CARTESIAN_POINT('Origin',(3.7999946115101,4.0951891156279,0.));
#515=CARTESIAN_POINT('Origin',(4.22919071613068,3.83869212972257,0.));
#516=CARTESIAN_POINT('',(3.00000195180669,0.10869904096508,100.));
#517=CARTESIAN_POINT($,(3.08387443133427,0.363211429993368,100.));
#518=CARTESIAN_POINT('',(3.00000195180669,0.10869904096508,0.));
#519=CARTESIAN_POINT($,(3.00000195180669,0.10869904096508,0.));
#520=CARTESIAN_POINT($,(3.08387443133427,0.363211429993368,0.));
#521=CARTESIAN_POINT('Origin',(3.00000195180669,0.10869904096508,0.));
#522=CARTESIAN_POINT('',(2.99999964808651,-7.29999995903456,100.));
#523=CARTESIAN_POINT($,(3.00000149143182,-1.371853508349,100.));
#524=CARTESIAN_POINT('',(2.99999964808651,-7.29999995903456,0.));
#525=CARTESIAN_POINT($,(2.99999964808651,-7.29999995903456,0.));
#526=CARTESIAN_POINT($,(3.00000149143182,-1.371853508349,0.));
#527=CARTESIAN_POINT('Origin',(1.99999964808656,-7.29999964808656,0.));
#528=CARTESIAN_POINT('',(1.99999919208528,-8.29999964808645,100.));
#529=CARTESIAN_POINT('Origin',(1.99999964808656,-7.29999964808656,100.));
#530=CARTESIAN_POINT('',(1.99999919208528,-8.29999964808645,0.));
#531=CARTESIAN_POINT($,(1.99999919208528,-8.29999964808645,0.));
#532=CARTESIAN_POINT('Origin',(1.99999964808656,-7.29999964808656,0.));
#533=CARTESIAN_POINT('Origin',(1.99999919208528,-8.29999964808645,0.));
#534=CARTESIAN_POINT($,(2.00000003904451,-5.57620269740074,100.));
#535=CARTESIAN_POINT($,(2.00000003904451,-5.57620269740074,0.));
#536=CARTESIAN_POINT('Origin',(1.14999730146391,-2.85240548240811,100.));
#537=CARTESIAN_POINT('Origin',(1.14999730146391,-2.85240548240811,0.));
#538=UNCERTAINTY_MEASURE_WITH_UNIT(LENGTH_MEASURE(0.01),#540,
'DISTANCE_ACCURACY_VALUE',
'Maximum model space distance between geometric entities at asserted c
onnectivities');
#539=(
GEOMETRIC_REPRESENTATION_CONTEXT(3)
GLOBAL_UNCERTAINTY_ASSIGNED_CONTEXT((#538))
GLOBAL_UNIT_ASSIGNED_CONTEXT((#540,#543,#541))
REPRESENTATION_CONTEXT('','3D')
);
#540=(
LENGTH_UNIT()
NAMED_UNIT(*)
SI_UNIT(.MILLI.,.METRE.)
);
#541=(
NAMED_UNIT(*)
SI_UNIT($,.STERADIAN.)
SOLID_ANGLE_UNIT()
);
#542=DIMENSIONAL_EXPONENTS(0.,0.,0.,0.,0.,0.,0.);
#543=(
CONVERSION_BASED_UNIT('degree',#545)
NAMED_UNIT(#542)
PLANE_ANGLE_UNIT()
);
#544=(
NAMED_UNIT(*)
PLANE_ANGLE_UNIT()
SI_UNIT($,.RADIAN.)
);
#545=PLANE_ANGLE_MEASURE_WITH_UNIT(PLANE_ANGLE_MEASURE(0.01745329252),#544);
#546=SHAPE_DEFINITION_REPRESENTATION(#547,#548);
#547=PRODUCT_DEFINITION_SHAPE('',$,#550);
#548=SHAPE_REPRESENTATION('',(#330),#539);
#549=DESIGN_CONTEXT('3D Mechanical Parts',#553,'design');
#550=PRODUCT_DEFINITION('-700004-14','-700004-14',#551,#549);
#551=PRODUCT_DEFINITION_FORMATION('',$,#555);
#552=APPLICATION_PROTOCOL_DEFINITION('international standard',
'ap203_configuration_controlled_3d_design_of_mechanical_parts_and_asse
mblies_mim_lf',2004,#553);
#553=APPLICATION_CONTEXT(
'Configuration Controlled 3D Design of Mechanical Parts and Assemblies');
#554=MECHANICAL_CONTEXT('3D Mechanical Parts',#553,'mechanical');
#555=PRODUCT('-700004-14','-700004-14',$,(#554));
#556=PRESENTATION_STYLE_ASSIGNMENT((#557));
#557=SURFACE_STYLE_USAGE(.BOTH.,#558);
#558=SURFACE_SIDE_STYLE($,(#559));
#559=SURFACE_STYLE_FILL_AREA(#560);
#560=FILL_AREA_STYLE($,(#561));
#561=FILL_AREA_STYLE_COLOUR($,#562);
#562=COLOUR_RGB('',0.258823529411765,0.258823529411765,0.258823529411765);
ENDSEC;
END-ISO-10303-21;
