                                                                        S      1
,,,14H700020.stp.ipt,22HAutodesk Inventor 2014,7Hunknown,32,38,7,99,15,,G      1
1.,2,2HMM,1,0.08,15H20151016.101952,0.01,10000.,5Hzeman,,11,0,;         G      2
     406       1                       1                        00000000D      1
     406                       1       3                               0D      2
     186       2                                                00000000D      3
     186            -183       1       0                               0D      4
     514       3                                                00010000D      5
     514                       1       1                               0D      6
     190       4                                                00010000D      7
     190       0    -183       1       1                               0D      8
     190       5                                                00010000D      9
     190       0    -183       1       1                               0D     10
     190       6                                                00010000D     11
     190       0    -183       1       1                               0D     12
     190       7                                                00010000D     13
     190       0    -183       1       1                               0D     14
     190       8                                                00010000D     15
     190       0    -183       1       1                               0D     16
     190       9                                                00010000D     17
     190       0    -183       1       1                               0D     18
     123      10                                                00010200D     19
     123       0               1       0                               0D     20
     123      11                                                00010200D     21
     123       0               1       0                               0D     22
     123      12                                                00010200D     23
     123       0               1       0                               0D     24
     123      13                                                00010200D     25
     123       0               1       0                               0D     26
     123      14                                                00010200D     27
     123       0               1       0                               0D     28
     123      15                                                00010200D     29
     123       0               1       0                               0D     30
     123      16                                                00010200D     31
     123       0               1       0                               0D     32
     123      17                                                00010200D     33
     123       0               1       0                               0D     34
     123      18                                                00010200D     35
     123       0               1       0                               0D     36
     123      19                                                00010200D     37
     123       0               1       0                               0D     38
     123      20                                                00010200D     39
     123       0               1       0                               0D     40
     123      21                                                00010200D     41
     123       0               1       0                               0D     42
     116      22                                                00010000D     43
     116       0               1       0                               0D     44
     116      23                                                00010000D     45
     116       0               1       0                               0D     46
     116      24                                                00010000D     47
     116       0               1       0                               0D     48
     116      25                                                00010000D     49
     116       0               1       0                               0D     50
     116      26                                                00010000D     51
     116       0               1       0                               0D     52
     116      27                                                00010000D     53
     116       0               1       0                               0D     54
     510      28                                                00010000D     55
     510            -183       1       1                               0D     56
     510      29                                                00010000D     57
     510            -183       1       1                               0D     58
     510      30                                                00010000D     59
     510            -183       1       1                               0D     60
     510      31                                                00010000D     61
     510            -183       1       1                               0D     62
     510      32                                                00010000D     63
     510            -183       1       1                               0D     64
     510      33                                                00010000D     65
     510            -183       1       1                               0D     66
     510      34                                                00010000D     67
     510            -183       1       1                               0D     68
     510      35                                                00010000D     69
     510            -183       1       1                               0D     70
     510      36                                                00010000D     71
     510            -183       1       1                               0D     72
     508      37                                                00010000D     73
     508                       1       1                               0D     74
     508      38                                                00010000D     75
     508                       1       1                               0D     76
     508      39                                                00010000D     77
     508                       1       1                               0D     78
     508      40                                                00010000D     79
     508                       1       1                               0D     80
     508      41                                                00010000D     81
     508                       1       1                               0D     82
     508      42                                                00010000D     83
     508                       1       1                               0D     84
     508      43                                                00010000D     85
     508                       1       1                               0D     86
     508      44                                                00010000D     87
     508                       1       1                               0D     88
     508      45                                                00010000D     89
     508                       1       1                               0D     90
     508      46                                                00010000D     91
     508                       1       1                               0D     92
     508      47                                                00010000D     93
     508                       1       1                               0D     94
     508      48                                                00010000D     95
     508                       1       1                               0D     96
     508      49                                                00010000D     97
     508                       1       1                               0D     98
     508      50                                                00010000D     99
     508                       1       1                               0D    100
     508      51                                                00010000D    101
     508                       1       1                               0D    102
     124      52                                                00000000D    103
     124                       1       0                               0D    104
     124      53                                                00000000D    105
     124                       1       0                               0D    106
     124      54                                                00000000D    107
     124                       1       0                               0D    108
     124      55                                                00000000D    109
     124                       1       0                               0D    110
     124      56                                                00000000D    111
     124                       2       0                               0D    112
     124      58                                                00000000D    113
     124                       2       0                               0D    114
     100      60                                     103        00010000D    115
     100       0               1       0                               0D    116
     100      61                                     105        00010000D    117
     100       0               1       0                               0D    118
     100      62                                     107        00010000D    119
     100       0               1       0                               0D    120
     100      63                                     109        00010000D    121
     100       0               1       0                               0D    122
     100      64                                     111        00010000D    123
     100       0               1       0                               0D    124
     100      65                                     113        00010000D    125
     100       0               1       0                               0D    126
     120      66                                                00010000D    127
     120       0    -183       1       0                               0D    128
     120      67                                                00010000D    129
     120       0    -183       1       0                               0D    130
     120      68                                                00010000D    131
     120       0    -183       1       0                               0D    132
     110      69                                                00010000D    133
     110       0               2       0                               0D    134
     110      71                                                00010000D    135
     110       0               2       0                               0D    136
     110      73                                                00010000D    137
     110       0               1       0                               0D    138
     110      74                                                00010000D    139
     110       0               2       0                               0D    140
     110      76                                                00010000D    141
     110       0               2       0                               0D    142
     110      78                                                00010000D    143
     110       0               1       0                               0D    144
     110      79                                                00010000D    145
     110       0               2       0                               0D    146
     110      81                                                00010000D    147
     110       0               1       0                               0D    148
     110      82                                                00010000D    149
     110       0               1       0                               0D    150
     110      83                                                00010000D    151
     110       0               1       0                               0D    152
     110      84                                                00010000D    153
     110       0               1       0                               0D    154
     110      85                                                00010000D    155
     110       0               1       0                               0D    156
     110      86                                                00010000D    157
     110       0               1       0                               0D    158
     110      87                                                00010000D    159
     110       0               1       0                               0D    160
     110      88                                                00010000D    161
     110       0               1       0                               0D    162
     110      89                                                00010000D    163
     110       0               1       0                               0D    164
     110      90                                                00010000D    165
     110       0               1       0                               0D    166
     110      91                                                00010000D    167
     110       0               1       0                               0D    168
     110      92                                                00010000D    169
     110       0               1       0                               0D    170
     110      93                                                00010000D    171
     110       0               1       0                               0D    172
     110      94                                                00010000D    173
     110       0               1       0                               0D    174
     502      95                                                00010000D    175
     502                       4       1                               0D    176
     504      99                                                00010001D    177
     504                       6       1                               0D    178
     406     105                                                00000000D    179
     406                       1      15                               0D    180
     314     106                                                00000200D    181
     314                       1       0                               0D    182
     314     107                                                00000200D    183
     314                       1       0                               0D    184
406,2,0,10H700020.stp;                                                 1P      1
186,5,1,0,0,1,179;                                                     3P      2
514,9,55,1,57,1,59,1,61,1,63,1,65,1,67,1,69,1,71,1;                    5P      3
190,43,19,21;                                                          7P      4
190,45,23,25;                                                          9P      5
190,47,27,29;                                                         11P      6
190,49,31,33;                                                         13P      7
190,51,35,37;                                                         15P      8
190,53,39,41;                                                         17P      9
123,-1.,0.,0.;                                                        19P     10
123,0.,0.,1.;                                                         21P     11
123,0.,1.,0.;                                                         23P     12
123,0.,0.,1.;                                                         25P     13
123,1.,0.,0.;                                                         27P     14
123,0.,0.,-1.;                                                        29P     15
123,0.,-1.,0.;                                                        31P     16
123,0.,0.,-1.;                                                        33P     17
123,-0.,-0.,-1.;                                                      35P     18
123,1.,0.,0.;                                                         37P     19
123,0.,0.,1.;                                                         39P     20
123,1.,0.,0.;                                                         41P     21
116,-45.,-22.5,0.,0;                                                  43P     22
116,-45.,22.5,0.,0;                                                   45P     23
116,45.,22.5,0.,0;                                                    47P     24
116,45.,-22.5,0.,0;                                                   49P     25
116,-3.330669D-015,-3.03461D-014,0.,0;                                51P     26
116,-3.330669D-015,-3.03461D-014,2.,0;                                53P     27
510,127,1,1,73;                                                       55P     28
510,129,1,1,75;                                                       57P     29
510,131,1,1,77;                                                       59P     30
510,7,1,1,79;                                                         61P     31
510,9,1,1,81;                                                         63P     32
510,11,1,1,83;                                                        65P     33
510,13,1,1,85;                                                        67P     34
510,15,4,1,87,89,91,93;                                               69P     35
510,17,4,1,95,97,99,101;                                              71P     36
508,4,0,177,1,0,0,0,177,2,1,0,0,177,3,0,0,0,177,2,0,0;                73P     37
508,4,0,177,4,0,0,0,177,5,1,0,0,177,6,0,0,0,177,5,0,0;                75P     38
508,4,0,177,7,0,0,0,177,8,1,0,0,177,9,0,0,0,177,8,0,0;                77P     39
508,4,0,177,10,1,0,0,177,11,0,0,0,177,12,1,0,0,177,13,1,0;            79P     40
508,4,0,177,14,1,0,0,177,15,0,0,0,177,16,1,0,0,177,11,1,0;            81P     41
508,4,0,177,17,1,0,0,177,18,0,0,0,177,19,1,0,0,177,15,1,0;            83P     42
508,4,0,177,20,1,0,0,177,13,0,0,0,177,21,1,0,0,177,18,1,0;            85P     43
508,4,0,177,21,0,0,0,177,12,0,0,0,177,16,0,0,0,177,19,0,0;            87P     44
508,1,0,177,1,1,0;                                                    89P     45
508,1,0,177,4,1,0;                                                    91P     46
508,1,0,177,7,1,0;                                                    93P     47
508,4,0,177,10,0,0,0,177,20,0,0,0,177,17,0,0,0,177,14,0,0;            95P     48
508,1,0,177,3,1,0;                                                    97P     49
508,1,0,177,6,1,0;                                                    99P     50
508,1,0,177,9,1,0;                                                   101P     51
124,1.,-0.,0.,22.5,-0.,1.,-0.,-3.03461D-014,0.,-0.,1.,0.;            103P     52
124,1.,0.,0.,22.5,0.,-1.,-0.,-3.03461D-014,0.,-0.,-1.,2.;            105P     53
124,1.,-0.,0.,-22.5,-0.,1.,-0.,-3.03461D-014,0.,-0.,1.,0.;           107P     54
124,1.,0.,0.,-22.5,0.,-1.,-0.,-3.03461D-014,0.,-0.,-1.,2.;           109P     55
124,1.,-0.,0.,9.992007D-015,-0.,1.,-0.,-3.03461D-014,0.,-0.,1.,      111P     56
0.;                                                                  111P     57
124,1.,0.,0.,9.992007D-015,0.,-1.,-0.,-3.03461D-014,0.,-0.,-1.,      113P     58
2.;                                                                  113P     59
100,0.,0.,0.,4.2,0.,4.2,0.;                                          115P     60
100,0.,0.,0.,4.2,0.,4.2,0.;                                          117P     61
100,0.,0.,0.,4.20000000000001,0.,4.20000000000001,0.;                119P     62
100,0.,0.,0.,4.20000000000001,0.,4.20000000000001,0.;                121P     63
100,0.,0.,0.,10.,0.,10.,0.;                                          123P     64
100,0.,0.,0.,10.,0.,10.,0.;                                          125P     65
120,133,135,0.,6.28318530717959;                                     127P     66
120,139,141,0.,6.28318530717959;                                     129P     67
120,145,147,0.,6.28318530717959;                                     131P     68
110,22.5,-2.92903575413162D-014,1.,22.5,-2.92903575413162D-014,      133P     69
2.;                                                                  133P     70
110,26.7,-2.72059134269906D-014,0.,26.7,-2.72059134269906D-014,      135P     71
2.;                                                                  135P     72
110,26.7,-3.03461D-014,0.,26.7,-3.03461D-014,2.;                     137P     73
110,-22.5,-3.24305424586838D-014,1.,-22.5,                           139P     74
-3.24305424586838D-014,2.;                                           139P     75
110,-18.3,-3.34862832617257D-014,0.,-18.3,                           141P     76
-3.34862832617257D-014,2.;                                           141P     77
110,-18.3,-3.03461D-014,0.,-18.3,-3.03461D-014,2.;                   143P     78
110,1.22124532708767D-014,-2.92156013119743D-014,1.,                 145P     79
1.22124532708767D-014,-2.92156013119743D-014,2.;                     145P     80
110,10.,-2.56358158248013D-014,0.,10.,-2.56358158248013D-014,2.;     147P     81
110,10.,-3.03461D-014,0.,10.,-3.03461D-014,2.;                       149P     82
110,-45.,-22.5,2.,-45.,22.5,2.;                                      151P     83
110,-45.,22.5,0.,-45.,22.5,2.;                                       153P     84
110,-45.,22.5,0.,-45.,-22.5,0.;                                      155P     85
110,-45.,-22.5,0.,-45.,-22.5,2.;                                     157P     86
110,-45.,22.5,2.,45.,22.5,2.;                                        159P     87
110,45.,22.5,0.,45.,22.5,2.;                                         161P     88
110,45.,22.5,0.,-45.,22.5,0.;                                        163P     89
110,45.,22.5,2.,45.,-22.5,2.;                                        165P     90
110,45.,-22.5,0.,45.,-22.5,2.;                                       167P     91
110,45.,-22.5,0.,45.,22.5,0.;                                        169P     92
110,45.,-22.5,2.,-45.,-22.5,2.;                                      171P     93
110,-45.,-22.5,0.,45.,-22.5,0.;                                      173P     94
502,14,26.7,-3.03461D-014,0.,26.7,-3.03461D-014,2.,-18.3,            175P     95
-3.03461D-014,0.,-18.3,-3.03461D-014,2.,10.,-3.03461D-014,0.,        175P     96
10.,-3.03461D-014,2.,-45.,-22.5,2.,-45.,22.5,2.,-45.,22.5,0.,        175P     97
-45.,-22.5,0.,45.,22.5,2.,45.,22.5,0.,45.,-22.5,2.,45.,-22.5,0.;     175P     98
504,21,115,175,1,175,1,137,175,1,175,2,117,175,2,175,2,119,175,      177P     99
3,175,3,143,175,3,175,4,121,175,4,175,4,123,175,5,175,5,149,175,     177P    100
5,175,6,125,175,6,175,6,151,175,7,175,8,153,175,9,175,8,155,175,     177P    101
9,175,10,157,175,10,175,7,159,175,8,175,11,161,175,12,175,11,        177P    102
163,175,12,175,9,165,175,11,175,13,167,175,14,175,13,169,175,14,     177P    103
175,12,171,175,13,175,7,173,175,10,175,14;                           177P    104
406,1,8HTěleso1;                                                    179P    105
314,74.9019607843137,74.9019607843137,74.9019607843137,;             181P    106
314,30.9803921568627,30.9803921568627,30.9803921568627,;             183P    107
S      1G      2D    184P    107                                        T      1
