ISO-10303-21;
HEADER;
/****************************************************************
 * Generated by software with PDE/Lib inside                    *
 * PDElib Version v51a, created Mon 03/22/2010                  *
 * International Technegroup Inc. (www.iti-oh.com)              *
 ****************************************************************/
FILE_DESCRIPTION((''),'2;1');
FILE_NAME('D:\\P\X2\0159\X0\evod katalogu\\P\X2\0159\X0\evod do STEP\\Modul 45\\Rozvod vzduchu\\700020\\700020.ipt.stp','2010-09-05T12:23:26',(''),(''),'Autodesk Inventor 2010','Autodesk Inventor 2010','');
FILE_SCHEMA(('AUTOMOTIVE_DESIGN { 1 0 10303 214 1 1 1 1 }'));
ENDSEC;
DATA;
#5=APPLICATION_CONTEXT('automotive design');
#6=APPLICATION_PROTOCOL_DEFINITION('International Standard','automotive_design',2001,#5);
#7=PRODUCT_CONTEXT('',#5,'mechanical');
#8=PRODUCT('700020','700020',$,(#7));
#9=PRODUCT_RELATED_PRODUCT_CATEGORY('part',$,(#8));
#10=PRODUCT_DEFINITION_FORMATION('',$,#8);
#11=PRODUCT_DEFINITION_CONTEXT('part definition',#5,'design');
#12=PRODUCT_DEFINITION('',$,#10,#11);
#18=(NAMED_UNIT(*)PLANE_ANGLE_UNIT()SI_UNIT($,.RADIAN.));
#19=DIMENSIONAL_EXPONENTS(0.0,0.0,0.0,0.0,0.0,0.0,0.0);
#20=PLANE_ANGLE_MEASURE_WITH_UNIT(PLANE_ANGLE_MEASURE(0.017453292500000),#18);
#24=(CONVERSION_BASED_UNIT('DEGREE',#20)NAMED_UNIT(#19)PLANE_ANGLE_UNIT());
#28=(NAMED_UNIT(*)SI_UNIT($,.STERADIAN.)SOLID_ANGLE_UNIT());
#32=(LENGTH_UNIT()NAMED_UNIT(*)SI_UNIT(.MILLI.,.METRE.));
#34=UNCERTAINTY_MEASURE_WITH_UNIT(LENGTH_MEASURE(0.010000000000000),#32,'DISTANCE_ACCURACY_VALUE','');
#36=(GEOMETRIC_REPRESENTATION_CONTEXT(3)GLOBAL_UNCERTAINTY_ASSIGNED_CONTEXT((#34))GLOBAL_UNIT_ASSIGNED_CONTEXT((#24,#28,#32))REPRESENTATION_CONTEXT('None','None'));
#37=AXIS2_PLACEMENT_3D('',#38,#39,#40);
#38=CARTESIAN_POINT('',(0.0,0.0,0.0));
#39=DIRECTION('',(0.0,0.0,1.0));
#40=DIRECTION('',(1.0,0.0,0.0));
#41=SHAPE_REPRESENTATION('',(#37),#36);
#42=PRODUCT_DEFINITION_SHAPE('','',#12);
#43=SHAPE_DEFINITION_REPRESENTATION(#42,#41);
#49=(NAMED_UNIT(*)PLANE_ANGLE_UNIT()SI_UNIT($,.RADIAN.));
#50=DIMENSIONAL_EXPONENTS(0.0,0.0,0.0,0.0,0.0,0.0,0.0);
#51=PLANE_ANGLE_MEASURE_WITH_UNIT(PLANE_ANGLE_MEASURE(0.017453292500000),#49);
#55=(CONVERSION_BASED_UNIT('DEGREE',#51)NAMED_UNIT(#50)PLANE_ANGLE_UNIT());
#59=(NAMED_UNIT(*)SI_UNIT($,.STERADIAN.)SOLID_ANGLE_UNIT());
#63=(LENGTH_UNIT()NAMED_UNIT(*)SI_UNIT(.MILLI.,.METRE.));
#65=UNCERTAINTY_MEASURE_WITH_UNIT(LENGTH_MEASURE(0.000001000000000),#63,'DISTANCE_ACCURACY_VALUE','');
#67=(GEOMETRIC_REPRESENTATION_CONTEXT(3)GLOBAL_UNCERTAINTY_ASSIGNED_CONTEXT((#65))GLOBAL_UNIT_ASSIGNED_CONTEXT((#55,#59,#63))REPRESENTATION_CONTEXT('','3D'));
#68=CARTESIAN_POINT('',(18.299999999999983,-3.086045E-014,2.0));
#69=CARTESIAN_POINT('',(18.299999999999983,-3.086045E-014,0.0));
#70=CARTESIAN_POINT('',(18.299999999999983,-4.200000000000030,2.0));
#71=CARTESIAN_POINT('',(18.299999999999983,-4.200000000000030,0.0));
#72=CARTESIAN_POINT('',(22.499999999999982,-4.200000000000030,2.0));
#73=CARTESIAN_POINT('',(22.499999999999982,-4.200000000000030,0.0));
#74=CARTESIAN_POINT('',(26.699999999999982,-4.200000000000028,2.0));
#75=CARTESIAN_POINT('',(26.699999999999982,-4.200000000000028,0.0));
#76=CARTESIAN_POINT('',(26.699999999999982,-2.983174E-014,2.0));
#77=CARTESIAN_POINT('',(26.699999999999982,-2.983174E-014,0.0));
#78=CARTESIAN_POINT('',(26.699999999999982,4.199999999999969,2.0));
#79=CARTESIAN_POINT('',(26.699999999999982,4.199999999999969,0.0));
#80=CARTESIAN_POINT('',(22.499999999999982,4.199999999999969,2.0));
#81=CARTESIAN_POINT('',(22.499999999999982,4.199999999999969,0.0));
#82=CARTESIAN_POINT('',(18.299999999999983,4.199999999999967,2.0));
#83=CARTESIAN_POINT('',(18.299999999999983,4.199999999999967,0.0));
#84=CARTESIAN_POINT('',(18.299999999999983,-3.086045E-014,2.0));
#85=CARTESIAN_POINT('',(18.299999999999983,-3.086045E-014,0.0));
#93=(BOUNDED_SURFACE()B_SPLINE_SURFACE(1,2,((#68,#70,#72,#74,#76,#78,#80,#82,#84),(#69,#71,#73,#75,#77,#79,#81,#83,#85)),.UNSPECIFIED.,.F.,.T.,.U.)B_SPLINE_SURFACE_WITH_KNOTS((2,2),(3,2,2,2,3),(-0.238095238095238,0.238095238095238),(0.0,6.597344572538566,13.194689145077131,19.792033717615698,26.389378290154262),.UNSPECIFIED.)GEOMETRIC_REPRESENTATION_ITEM()RATIONAL_B_SPLINE_SURFACE(((1.0,0.707106781186548,1.0,0.707106781186548,1.0,0.707106781186548,1.0,0.707106781186548,1.0),(1.0,0.707106781186548,1.0,0.707106781186548,1.0,0.707106781186548,1.0,0.707106781186548,1.0)))REPRESENTATION_ITEM('')SURFACE());
#94=CARTESIAN_POINT('',(26.699999999999982,-3.034610E-014,2.0));
#95=VERTEX_POINT('',#94);
#96=CARTESIAN_POINT('',(22.499999999999982,-3.034610E-014,2.0));
#97=DIRECTION('',(0.0,0.0,-1.0));
#98=DIRECTION('',(1.0,0.0,0.0));
#99=AXIS2_PLACEMENT_3D('',#96,#97,#98);
#100=CIRCLE('',#99,4.200000000000000);
#101=EDGE_CURVE('',#95,#95,#100,.T.);
#102=ORIENTED_EDGE('',*,*,#101,.F.);
#103=EDGE_LOOP('',(#102));
#104=FACE_OUTER_BOUND('',#103,.T.);
#105=CARTESIAN_POINT('',(26.699999999999982,-3.034610E-014,0.0));
#106=VERTEX_POINT('',#105);
#107=CARTESIAN_POINT('',(22.499999999999982,-3.034610E-014,0.0));
#108=DIRECTION('',(0.0,0.0,1.0));
#109=DIRECTION('',(1.0,0.0,0.0));
#110=AXIS2_PLACEMENT_3D('',#107,#108,#109);
#111=CIRCLE('',#110,4.200000000000000);
#112=EDGE_CURVE('',#106,#106,#111,.T.);
#113=ORIENTED_EDGE('',*,*,#112,.F.);
#114=EDGE_LOOP('',(#113));
#115=FACE_BOUND('',#114,.T.);
#116=ADVANCED_FACE('',(#104,#115),#93,.F.);
#117=CARTESIAN_POINT('',(-26.699999999999992,-3.086045E-014,2.0));
#118=CARTESIAN_POINT('',(-26.699999999999992,-3.086045E-014,0.0));
#119=CARTESIAN_POINT('',(-26.699999999999992,-4.200000000000030,2.0));
#120=CARTESIAN_POINT('',(-26.699999999999992,-4.200000000000030,0.0));
#121=CARTESIAN_POINT('',(-22.499999999999993,-4.200000000000030,2.0));
#122=CARTESIAN_POINT('',(-22.499999999999993,-4.200000000000030,0.0));
#123=CARTESIAN_POINT('',(-18.299999999999994,-4.200000000000028,2.0));
#124=CARTESIAN_POINT('',(-18.299999999999994,-4.200000000000028,0.0));
#125=CARTESIAN_POINT('',(-18.299999999999994,-2.983174E-014,2.0));
#126=CARTESIAN_POINT('',(-18.299999999999994,-2.983174E-014,0.0));
#127=CARTESIAN_POINT('',(-18.299999999999994,4.199999999999969,2.0));
#128=CARTESIAN_POINT('',(-18.299999999999994,4.199999999999969,0.0));
#129=CARTESIAN_POINT('',(-22.499999999999993,4.199999999999969,2.0));
#130=CARTESIAN_POINT('',(-22.499999999999993,4.199999999999969,0.0));
#131=CARTESIAN_POINT('',(-26.699999999999992,4.199999999999967,2.0));
#132=CARTESIAN_POINT('',(-26.699999999999992,4.199999999999967,0.0));
#133=CARTESIAN_POINT('',(-26.699999999999992,-3.086045E-014,2.0));
#134=CARTESIAN_POINT('',(-26.699999999999992,-3.086045E-014,0.0));
#142=(BOUNDED_SURFACE()B_SPLINE_SURFACE(1,2,((#117,#119,#121,#123,#125,#127,#129,#131,#133),(#118,#120,#122,#124,#126,#128,#130,#132,#134)),.UNSPECIFIED.,.F.,.T.,.U.)B_SPLINE_SURFACE_WITH_KNOTS((2,2),(3,2,2,2,3),(-0.238095238095238,0.238095238095238),(0.0,6.597344572538566,13.194689145077131,19.792033717615698,26.389378290154262),.UNSPECIFIED.)GEOMETRIC_REPRESENTATION_ITEM()RATIONAL_B_SPLINE_SURFACE(((1.0,0.707106781186548,1.0,0.707106781186548,1.0,0.707106781186548,1.0,0.707106781186548,1.0),(1.0,0.707106781186548,1.0,0.707106781186548,1.0,0.707106781186548,1.0,0.707106781186548,1.0)))REPRESENTATION_ITEM('')SURFACE());
#143=CARTESIAN_POINT('',(-18.299999999999990,-3.034610E-014,2.0));
#144=VERTEX_POINT('',#143);
#145=CARTESIAN_POINT('',(-22.499999999999993,-3.034610E-014,2.0));
#146=DIRECTION('',(0.0,0.0,-1.0));
#147=DIRECTION('',(1.0,0.0,0.0));
#148=AXIS2_PLACEMENT_3D('',#145,#146,#147);
#149=CIRCLE('',#148,4.200000000000000);
#150=EDGE_CURVE('',#144,#144,#149,.T.);
#151=ORIENTED_EDGE('',*,*,#150,.F.);
#152=EDGE_LOOP('',(#151));
#153=FACE_OUTER_BOUND('',#152,.T.);
#154=CARTESIAN_POINT('',(-18.299999999999990,-3.034610E-014,0.0));
#155=VERTEX_POINT('',#154);
#156=CARTESIAN_POINT('',(-22.499999999999993,-3.034610E-014,0.0));
#157=DIRECTION('',(0.0,0.0,1.0));
#158=DIRECTION('',(1.0,0.0,0.0));
#159=AXIS2_PLACEMENT_3D('',#156,#157,#158);
#160=CIRCLE('',#159,4.200000000000000);
#161=EDGE_CURVE('',#155,#155,#160,.T.);
#162=ORIENTED_EDGE('',*,*,#161,.F.);
#163=EDGE_LOOP('',(#162));
#164=FACE_BOUND('',#163,.T.);
#165=ADVANCED_FACE('',(#153,#164),#142,.F.);
#166=CARTESIAN_POINT('',(-9.999999999999989,-3.157074E-014,2.0));
#167=CARTESIAN_POINT('',(-9.999999999999989,-3.157074E-014,0.0));
#168=CARTESIAN_POINT('',(-9.999999999999988,-10.000000000000030,2.0));
#169=CARTESIAN_POINT('',(-9.999999999999988,-10.000000000000030,0.0));
#170=CARTESIAN_POINT('',(1.121665E-014,-10.000000000000030,2.0));
#171=CARTESIAN_POINT('',(1.121665E-014,-10.000000000000030,0.0));
#172=CARTESIAN_POINT('',(10.000000000000009,-10.000000000000027,2.0));
#173=CARTESIAN_POINT('',(10.000000000000009,-10.000000000000027,0.0));
#174=CARTESIAN_POINT('',(10.000000000000011,-2.912145E-014,2.0));
#175=CARTESIAN_POINT('',(10.000000000000011,-2.912145E-014,0.0));
#176=CARTESIAN_POINT('',(10.000000000000007,9.999999999999970,2.0));
#177=CARTESIAN_POINT('',(10.000000000000007,9.999999999999970,0.0));
#178=CARTESIAN_POINT('',(8.767360E-015,9.999999999999970,2.0));
#179=CARTESIAN_POINT('',(8.767360E-015,9.999999999999970,0.0));
#180=CARTESIAN_POINT('',(-9.999999999999989,9.999999999999966,2.0));
#181=CARTESIAN_POINT('',(-9.999999999999989,9.999999999999966,0.0));
#182=CARTESIAN_POINT('',(-9.999999999999989,-3.157074E-014,2.0));
#183=CARTESIAN_POINT('',(-9.999999999999989,-3.157074E-014,0.0));
#191=(BOUNDED_SURFACE()B_SPLINE_SURFACE(1,2,((#166,#168,#170,#172,#174,#176,#178,#180,#182),(#167,#169,#171,#173,#175,#177,#179,#181,#183)),.UNSPECIFIED.,.F.,.T.,.U.)B_SPLINE_SURFACE_WITH_KNOTS((2,2),(3,2,2,2,3),(-0.100000000000000,0.100000000000000),(0.0,15.707963267948966,31.415926535897931,47.123889803846893,62.831853071795862),.UNSPECIFIED.)GEOMETRIC_REPRESENTATION_ITEM()RATIONAL_B_SPLINE_SURFACE(((1.0,0.707106781186548,1.0,0.707106781186548,1.0,0.707106781186548,1.0,0.707106781186548,1.0),(1.0,0.707106781186548,1.0,0.707106781186548,1.0,0.707106781186548,1.0,0.707106781186548,1.0)))REPRESENTATION_ITEM('')SURFACE());
#192=CARTESIAN_POINT('',(10.000000000000011,-3.034610E-014,2.0));
#193=VERTEX_POINT('',#192);
#194=CARTESIAN_POINT('',(9.992007E-015,-3.034610E-014,2.0));
#195=DIRECTION('',(0.0,0.0,-1.0));
#196=DIRECTION('',(1.0,0.0,0.0));
#197=AXIS2_PLACEMENT_3D('',#194,#195,#196);
#198=CIRCLE('',#197,10.0);
#199=EDGE_CURVE('',#193,#193,#198,.T.);
#200=ORIENTED_EDGE('',*,*,#199,.F.);
#201=EDGE_LOOP('',(#200));
#202=FACE_OUTER_BOUND('',#201,.T.);
#203=CARTESIAN_POINT('',(10.000000000000011,-3.034610E-014,0.0));
#204=VERTEX_POINT('',#203);
#205=CARTESIAN_POINT('',(9.992007E-015,-3.034610E-014,0.0));
#206=DIRECTION('',(0.0,0.0,1.0));
#207=DIRECTION('',(1.0,0.0,0.0));
#208=AXIS2_PLACEMENT_3D('',#205,#206,#207);
#209=CIRCLE('',#208,9.999999999999998);
#210=EDGE_CURVE('',#204,#204,#209,.T.);
#211=ORIENTED_EDGE('',*,*,#210,.F.);
#212=EDGE_LOOP('',(#211));
#213=FACE_BOUND('',#212,.T.);
#214=ADVANCED_FACE('',(#202,#213),#191,.F.);
#215=CARTESIAN_POINT('',(-44.999999999999972,-22.500000000000032,0.0));
#216=DIRECTION('',(-1.0,0.0,0.0));
#217=DIRECTION('',(0.0,0.0,1.0));
#218=AXIS2_PLACEMENT_3D('',#215,#216,#217);
#219=PLANE('',#218);
#220=CARTESIAN_POINT('',(-44.999999999999972,-22.500000000000032,2.0));
#221=VERTEX_POINT('',#220);
#222=CARTESIAN_POINT('',(-45.0,22.499999999999961,2.0));
#223=VERTEX_POINT('',#222);
#224=CARTESIAN_POINT('',(-44.999999999999972,-22.500000000000032,2.0));
#225=DIRECTION('',(0.0,1.0,0.0));
#226=VECTOR('',#225,44.999999999999993);
#227=LINE('',#224,#226);
#228=EDGE_CURVE('',#221,#223,#227,.T.);
#229=ORIENTED_EDGE('',*,*,#228,.T.);
#230=CARTESIAN_POINT('',(-45.0,22.499999999999961,0.0));
#231=VERTEX_POINT('',#230);
#232=CARTESIAN_POINT('',(-45.0,22.499999999999961,0.0));
#233=DIRECTION('',(0.0,0.0,1.0));
#234=VECTOR('',#233,2.0);
#235=LINE('',#232,#234);
#236=EDGE_CURVE('',#231,#223,#235,.T.);
#237=ORIENTED_EDGE('',*,*,#236,.F.);
#238=CARTESIAN_POINT('',(-44.999999999999972,-22.500000000000032,0.0));
#239=VERTEX_POINT('',#238);
#240=CARTESIAN_POINT('',(-45.0,22.499999999999961,0.0));
#241=DIRECTION('',(0.0,-1.0,0.0));
#242=VECTOR('',#241,44.999999999999993);
#243=LINE('',#240,#242);
#244=EDGE_CURVE('',#231,#239,#243,.T.);
#245=ORIENTED_EDGE('',*,*,#244,.T.);
#246=CARTESIAN_POINT('',(-44.999999999999972,-22.500000000000032,0.0));
#247=DIRECTION('',(0.0,0.0,1.0));
#248=VECTOR('',#247,2.0);
#249=LINE('',#246,#248);
#250=EDGE_CURVE('',#239,#221,#249,.T.);
#251=ORIENTED_EDGE('',*,*,#250,.T.);
#252=EDGE_LOOP('',(#229,#237,#245,#251));
#253=FACE_OUTER_BOUND('',#252,.T.);
#254=ADVANCED_FACE('',(#253),#219,.T.);
#255=CARTESIAN_POINT('',(-45.0,22.499999999999961,0.0));
#256=DIRECTION('',(0.0,1.0,0.0));
#257=DIRECTION('',(0.0,0.0,1.0));
#258=AXIS2_PLACEMENT_3D('',#255,#256,#257);
#259=PLANE('',#258);
#260=CARTESIAN_POINT('',(45.0,22.499999999999961,2.0));
#261=VERTEX_POINT('',#260);
#262=CARTESIAN_POINT('',(-45.0,22.499999999999961,2.0));
#263=DIRECTION('',(1.0,0.0,0.0));
#264=VECTOR('',#263,90.0);
#265=LINE('',#262,#264);
#266=EDGE_CURVE('',#223,#261,#265,.T.);
#267=ORIENTED_EDGE('',*,*,#266,.T.);
#268=CARTESIAN_POINT('',(45.0,22.499999999999961,0.0));
#269=VERTEX_POINT('',#268);
#270=CARTESIAN_POINT('',(45.0,22.499999999999961,0.0));
#271=DIRECTION('',(0.0,0.0,1.0));
#272=VECTOR('',#271,2.0);
#273=LINE('',#270,#272);
#274=EDGE_CURVE('',#269,#261,#273,.T.);
#275=ORIENTED_EDGE('',*,*,#274,.F.);
#276=CARTESIAN_POINT('',(45.0,22.499999999999961,0.0));
#277=DIRECTION('',(-1.0,0.0,0.0));
#278=VECTOR('',#277,90.0);
#279=LINE('',#276,#278);
#280=EDGE_CURVE('',#269,#231,#279,.T.);
#281=ORIENTED_EDGE('',*,*,#280,.T.);
#282=ORIENTED_EDGE('',*,*,#236,.T.);
#283=EDGE_LOOP('',(#267,#275,#281,#282));
#284=FACE_OUTER_BOUND('',#283,.T.);
#285=ADVANCED_FACE('',(#284),#259,.T.);
#286=CARTESIAN_POINT('',(45.0,22.499999999999961,0.0));
#287=DIRECTION('',(1.0,0.0,0.0));
#288=DIRECTION('',(0.0,0.0,-1.0));
#289=AXIS2_PLACEMENT_3D('',#286,#287,#288);
#290=PLANE('',#289);
#291=CARTESIAN_POINT('',(44.999999999999972,-22.500000000000032,2.0));
#292=VERTEX_POINT('',#291);
#293=CARTESIAN_POINT('',(45.0,22.499999999999961,2.0));
#294=DIRECTION('',(0.0,-1.0,0.0));
#295=VECTOR('',#294,44.999999999999993);
#296=LINE('',#293,#295);
#297=EDGE_CURVE('',#261,#292,#296,.T.);
#298=ORIENTED_EDGE('',*,*,#297,.T.);
#299=CARTESIAN_POINT('',(44.999999999999972,-22.500000000000032,0.0));
#300=VERTEX_POINT('',#299);
#301=CARTESIAN_POINT('',(44.999999999999972,-22.500000000000032,0.0));
#302=DIRECTION('',(0.0,0.0,1.0));
#303=VECTOR('',#302,2.0);
#304=LINE('',#301,#303);
#305=EDGE_CURVE('',#300,#292,#304,.T.);
#306=ORIENTED_EDGE('',*,*,#305,.F.);
#307=CARTESIAN_POINT('',(44.999999999999972,-22.500000000000032,0.0));
#308=DIRECTION('',(0.0,1.0,0.0));
#309=VECTOR('',#308,44.999999999999993);
#310=LINE('',#307,#309);
#311=EDGE_CURVE('',#300,#269,#310,.T.);
#312=ORIENTED_EDGE('',*,*,#311,.T.);
#313=ORIENTED_EDGE('',*,*,#274,.T.);
#314=EDGE_LOOP('',(#298,#306,#312,#313));
#315=FACE_OUTER_BOUND('',#314,.T.);
#316=ADVANCED_FACE('',(#315),#290,.T.);
#317=CARTESIAN_POINT('',(44.999999999999972,-22.500000000000032,0.0));
#318=DIRECTION('',(0.0,-1.0,0.0));
#319=DIRECTION('',(0.0,0.0,-1.0));
#320=AXIS2_PLACEMENT_3D('',#317,#318,#319);
#321=PLANE('',#320);
#322=CARTESIAN_POINT('',(44.999999999999972,-22.500000000000032,2.0));
#323=DIRECTION('',(-1.0,0.0,0.0));
#324=VECTOR('',#323,89.999999999999943);
#325=LINE('',#322,#324);
#326=EDGE_CURVE('',#292,#221,#325,.T.);
#327=ORIENTED_EDGE('',*,*,#326,.T.);
#328=ORIENTED_EDGE('',*,*,#250,.F.);
#329=CARTESIAN_POINT('',(-44.999999999999972,-22.500000000000032,0.0));
#330=DIRECTION('',(1.0,0.0,0.0));
#331=VECTOR('',#330,89.999999999999943);
#332=LINE('',#329,#331);
#333=EDGE_CURVE('',#239,#300,#332,.T.);
#334=ORIENTED_EDGE('',*,*,#333,.T.);
#335=ORIENTED_EDGE('',*,*,#305,.T.);
#336=EDGE_LOOP('',(#327,#328,#334,#335));
#337=FACE_OUTER_BOUND('',#336,.T.);
#338=ADVANCED_FACE('',(#337),#321,.T.);
#339=CARTESIAN_POINT('',(-3.330669E-015,-3.034610E-014,0.0));
#340=DIRECTION('',(0.0,0.0,1.0));
#341=DIRECTION('',(1.0,0.0,0.0));
#342=AXIS2_PLACEMENT_3D('',#339,#340,#341);
#343=PLANE('',#342);
#344=ORIENTED_EDGE('',*,*,#333,.F.);
#345=ORIENTED_EDGE('',*,*,#244,.F.);
#346=ORIENTED_EDGE('',*,*,#280,.F.);
#347=ORIENTED_EDGE('',*,*,#311,.F.);
#348=EDGE_LOOP('',(#344,#345,#346,#347));
#349=FACE_OUTER_BOUND('',#348,.T.);
#350=ORIENTED_EDGE('',*,*,#112,.T.);
#351=EDGE_LOOP('',(#350));
#352=FACE_BOUND('',#351,.T.);
#353=ORIENTED_EDGE('',*,*,#161,.T.);
#354=EDGE_LOOP('',(#353));
#355=FACE_BOUND('',#354,.T.);
#356=ORIENTED_EDGE('',*,*,#210,.T.);
#357=EDGE_LOOP('',(#356));
#358=FACE_BOUND('',#357,.T.);
#359=ADVANCED_FACE('',(#349,#352,#355,#358),#343,.F.);
#360=CARTESIAN_POINT('',(-3.330669E-015,-3.034610E-014,2.0));
#361=DIRECTION('',(0.0,0.0,1.0));
#362=DIRECTION('',(1.0,0.0,0.0));
#363=AXIS2_PLACEMENT_3D('',#360,#361,#362);
#364=PLANE('',#363);
#365=ORIENTED_EDGE('',*,*,#228,.F.);
#366=ORIENTED_EDGE('',*,*,#326,.F.);
#367=ORIENTED_EDGE('',*,*,#297,.F.);
#368=ORIENTED_EDGE('',*,*,#266,.F.);
#369=EDGE_LOOP('',(#365,#366,#367,#368));
#370=FACE_OUTER_BOUND('',#369,.T.);
#371=ORIENTED_EDGE('',*,*,#101,.T.);
#372=EDGE_LOOP('',(#371));
#373=FACE_BOUND('',#372,.T.);
#374=ORIENTED_EDGE('',*,*,#150,.T.);
#375=EDGE_LOOP('',(#374));
#376=FACE_BOUND('',#375,.T.);
#377=ORIENTED_EDGE('',*,*,#199,.T.);
#378=EDGE_LOOP('',(#377));
#379=FACE_BOUND('',#378,.T.);
#380=ADVANCED_FACE('',(#370,#373,#376,#379),#364,.T.);
#381=CLOSED_SHELL('',(#116,#165,#214,#254,#285,#316,#338,#359,#380));
#382=MANIFOLD_SOLID_BREP('T\X2\011B\X0\leso1',#381);
#383=COLOUR_RGB('Guma (\X2\FFFD\X0\ern\X2\FFFD\X0\)',0.309803992509842,0.309803992509842,0.309803992509842);
#384=FILL_AREA_STYLE_COLOUR('Guma (\X2\FFFD\X0\ern\X2\FFFD\X0\)',#383);
#385=FILL_AREA_STYLE('Guma (\X2\FFFD\X0\ern\X2\FFFD\X0\)',(#384));
#386=SURFACE_STYLE_FILL_AREA(#385);
#387=SURFACE_SIDE_STYLE('Guma (\X2\FFFD\X0\ern\X2\FFFD\X0\)',(#386));
#388=SURFACE_STYLE_USAGE(.BOTH.,#387);
#389=PRESENTATION_STYLE_ASSIGNMENT((#388));
#390=STYLED_ITEM('',(#389),#382);
#391=MECHANICAL_DESIGN_GEOMETRIC_PRESENTATION_REPRESENTATION('',(#390),#36);
#392=ADVANCED_BREP_SHAPE_REPRESENTATION('ABSR',(#382),#36);
#393=SHAPE_REPRESENTATION_RELATIONSHIP('SRR','None',#392,#41);
ENDSEC;
END-ISO-10303-21;
