                                                                        S      1
,,,14H700040.stp.ipt,22HAutodesk Inventor 2014,7Hunknown,32,38,7,99,15,,G      1
1.,2,2HMM,1,0.08,15H20151020.100142,0.01,10000.,5Hzeman,,11,0,;         G      2
     406       1                       1                        00000000D      1
     406                       1       3                               0D      2
     186       2                                                00000000D      3
     186            -219       1       0                               0D      4
     514       3                                                00010000D      5
     514                       2       1                               0D      6
     510       5                                                00010000D      7
     510            -219       1       1                               0D      8
     510       6                                                00010000D      9
     510            -219       1       1                               0D     10
     510       7                                                00010000D     11
     510            -219       1       1                               0D     12
     510       8                                                00010000D     13
     510            -219       1       1                               0D     14
     510       9                                                00010000D     15
     510            -219       1       1                               0D     16
     510      10                                                00010000D     17
     510            -219       1       1                               0D     18
     510      11                                                00010000D     19
     510            -219       1       1                               0D     20
     510      12                                                00010000D     21
     510            -219       1       1                               0D     22
     510      13                                                00010000D     23
     510            -219       1       1                               0D     24
     510      14                                                00010000D     25
     510            -219       1       1                               0D     26
     510      15                                                00010000D     27
     510            -219       1       1                               0D     28
     510      16                                                00010000D     29
     510            -219       1       1                               0D     30
     508      17                                                00010000D     31
     508                       1       1                               0D     32
     508      18                                                00010000D     33
     508                       1       1                               0D     34
     508      19                                                00010000D     35
     508                       1       1                               0D     36
     508      20                                                00010000D     37
     508                       1       1                               0D     38
     508      21                                                00010000D     39
     508                       1       1                               0D     40
     508      22                                                00010000D     41
     508                       1       1                               0D     42
     508      23                                                00010000D     43
     508                       1       1                               0D     44
     508      24                                                00010000D     45
     508                       1       1                               0D     46
     508      25                                                00010000D     47
     508                       1       1                               0D     48
     508      26                                                00010000D     49
     508                       1       1                               0D     50
     508      27                                                00010000D     51
     508                       3       1                               0D     52
     508      30                                                00010000D     53
     508                       3       1                               0D     54
     110      33                                                00010000D     55
     110       0               1       0                               0D     56
     110      34                                                00010000D     57
     110       0               1       0                               0D     58
     110      35                                                00010000D     59
     110       0               1       0                               0D     60
     110      36                                                00010000D     61
     110       0               1       0                               0D     62
     110      37                                                00010000D     63
     110       0               1       0                               0D     64
     110      38                                                00010000D     65
     110       0               1       0                               0D     66
     110      39                                                00010000D     67
     110       0               1       0                               0D     68
     110      40                                                00010000D     69
     110       0               1       0                               0D     70
     110      41                                                00010000D     71
     110       0               1       0                               0D     72
     110      42                                                00010000D     73
     110       0               1       0                               0D     74
     110      43                                                00010000D     75
     110       0               1       0                               0D     76
     110      44                                                00010000D     77
     110       0               1       0                               0D     78
     110      45                                                00010000D     79
     110       0               1       0                               0D     80
     110      46                                                00010000D     81
     110       0               1       0                               0D     82
     110      47                                                00010000D     83
     110       0               1       0                               0D     84
     110      48                                                00010000D     85
     110       0               1       0                               0D     86
     110      49                                                00010000D     87
     110       0               1       0                               0D     88
     110      50                                                00010000D     89
     110       0               1       0                               0D     90
     110      51                                                00010000D     91
     110       0               1       0                               0D     92
     110      52                                                00010000D     93
     110       0               1       0                               0D     94
     110      53                                                00010000D     95
     110       0               1       0                               0D     96
     110      54                                                00010000D     97
     110       0               1       0                               0D     98
     110      55                                                00010000D     99
     110       0               1       0                               0D    100
     110      56                                                00010000D    101
     110       0               1       0                               0D    102
     110      57                                                00010000D    103
     110       0               1       0                               0D    104
     110      58                                                00010000D    105
     110       0               1       0                               0D    106
     110      59                                                00010000D    107
     110       0               1       0                               0D    108
     110      60                                                00010000D    109
     110       0               1       0                               0D    110
     110      61                                                00010000D    111
     110       0               1       0                               0D    112
     110      62                                                00010000D    113
     110       0               1       0                               0D    114
     190      63                                                00010000D    115
     190       0    -219       1       1                               0D    116
     190      64                                                00010000D    117
     190       0    -219       1       1                               0D    118
     190      65                                                00010000D    119
     190       0    -219       1       1                               0D    120
     190      66                                                00010000D    121
     190       0    -219       1       1                               0D    122
     190      67                                                00010000D    123
     190       0    -219       1       1                               0D    124
     190      68                                                00010000D    125
     190       0    -219       1       1                               0D    126
     190      69                                                00010000D    127
     190       0    -219       1       1                               0D    128
     190      70                                                00010000D    129
     190       0    -219       1       1                               0D    130
     190      71                                                00010000D    131
     190       0    -219       1       1                               0D    132
     190      72                                                00010000D    133
     190       0    -219       1       1                               0D    134
     190      73                                                00010000D    135
     190       0    -219       1       1                               0D    136
     190      74                                                00010000D    137
     190       0    -219       1       1                               0D    138
     123      75                                                00010200D    139
     123       0               1       0                               0D    140
     123      76                                                00010200D    141
     123       0               1       0                               0D    142
     123      77                                                00010200D    143
     123       0               1       0                               0D    144
     123      78                                                00010200D    145
     123       0               1       0                               0D    146
     123      79                                                00010200D    147
     123       0               1       0                               0D    148
     123      80                                                00010200D    149
     123       0               1       0                               0D    150
     123      81                                                00010200D    151
     123       0               1       0                               0D    152
     123      82                                                00010200D    153
     123       0               1       0                               0D    154
     123      83                                                00010200D    155
     123       0               1       0                               0D    156
     123      84                                                00010200D    157
     123       0               1       0                               0D    158
     123      85                                                00010200D    159
     123       0               1       0                               0D    160
     123      86                                                00010200D    161
     123       0               1       0                               0D    162
     123      87                                                00010200D    163
     123       0               1       0                               0D    164
     123      88                                                00010200D    165
     123       0               1       0                               0D    166
     123      89                                                00010200D    167
     123       0               1       0                               0D    168
     123      90                                                00010200D    169
     123       0               1       0                               0D    170
     123      91                                                00010200D    171
     123       0               1       0                               0D    172
     123      92                                                00010200D    173
     123       0               1       0                               0D    174
     123      93                                                00010200D    175
     123       0               1       0                               0D    176
     123      94                                                00010200D    177
     123       0               1       0                               0D    178
     123      95                                                00010200D    179
     123       0               1       0                               0D    180
     123      96                                                00010200D    181
     123       0               1       0                               0D    182
     123      97                                                00010200D    183
     123       0               1       0                               0D    184
     123      98                                                00010200D    185
     123       0               1       0                               0D    186
     116      99                                                00010000D    187
     116       0               1       0                               0D    188
     116     100                                                00010000D    189
     116       0               1       0                               0D    190
     116     101                                                00010000D    191
     116       0               1       0                               0D    192
     116     102                                                00010000D    193
     116       0               1       0                               0D    194
     116     103                                                00010000D    195
     116       0               1       0                               0D    196
     116     104                                                00010000D    197
     116       0               1       0                               0D    198
     116     105                                                00010000D    199
     116       0               1       0                               0D    200
     116     106                                                00010000D    201
     116       0               1       0                               0D    202
     116     107                                                00010000D    203
     116       0               1       0                               0D    204
     116     108                                                00010000D    205
     116       0               1       0                               0D    206
     116     109                                                00010000D    207
     116       0               1       0                               0D    208
     116     110                                                00010000D    209
     116       0               1       0                               0D    210
     502     111                                                00010000D    211
     502                       5       1                               0D    212
     504     116                                                00010001D    213
     504                       8       1                               0D    214
     406     124                                                00000000D    215
     406                       1      15                               0D    216
     314     125                                                00000200D    217
     314                       1       0                               0D    218
     314     126                                                00000200D    219
     314                       1       0                               0D    220
406,2,0,10H700040.stp;                                                 1P      1
186,5,1,0,0,1,215;                                                     3P      2
514,12,7,1,9,1,11,1,13,1,15,1,17,1,19,1,21,1,23,1,25,1,27,1,29,        5P      3
1;                                                                     5P      4
510,115,1,1,31;                                                        7P      5
510,117,1,1,33;                                                        9P      6
510,119,1,1,35;                                                       11P      7
510,121,1,1,37;                                                       13P      8
510,123,1,1,39;                                                       15P      9
510,125,1,1,41;                                                       17P     10
510,127,1,1,43;                                                       19P     11
510,129,1,1,45;                                                       21P     12
510,131,1,1,47;                                                       23P     13
510,133,1,1,49;                                                       25P     14
510,135,1,1,51;                                                       27P     15
510,137,1,1,53;                                                       29P     16
508,4,0,213,1,1,0,0,213,2,0,0,0,213,3,0,0,0,213,4,1,0;                31P     17
508,4,0,213,5,1,0,0,213,6,0,0,0,213,7,0,0,0,213,2,1,0;                33P     18
508,4,0,213,8,1,0,0,213,9,0,0,0,213,10,0,0,0,213,6,1,0;               35P     19
508,4,0,213,11,1,0,0,213,12,0,0,0,213,13,0,0,0,213,9,1,0;             37P     20
508,4,0,213,14,1,0,0,213,15,0,0,0,213,16,0,0,0,213,12,1,0;            39P     21
508,4,0,213,17,1,0,0,213,18,0,0,0,213,19,0,0,0,213,15,1,0;            41P     22
508,4,0,213,20,1,0,0,213,21,0,0,0,213,22,0,0,0,213,18,1,0;            43P     23
508,4,0,213,23,1,0,0,213,24,0,0,0,213,25,0,0,0,213,21,1,0;            45P     24
508,4,0,213,26,1,0,0,213,27,0,0,0,213,28,0,0,0,213,24,1,0;            47P     25
508,4,0,213,29,1,0,0,213,4,0,0,0,213,30,0,0,0,213,27,1,0;             49P     26
508,10,0,213,17,0,0,0,213,14,0,0,0,213,11,0,0,0,213,8,0,0,0,213,      51P     27
5,0,0,0,213,1,0,0,0,213,29,0,0,0,213,26,0,0,0,213,23,0,0,0,213,       51P     28
20,0,0;                                                               51P     29
508,10,0,213,19,1,0,0,213,22,1,0,0,213,25,1,0,0,213,28,1,0,0,         53P     30
213,30,1,0,0,213,3,1,0,0,213,7,1,0,0,213,10,1,0,0,213,13,1,0,0,       53P     31
213,16,1,0;                                                           53P     32
110,4.,-10.5,100.,-4.,-10.5,100.;                                     55P     33
110,-4.,-10.5,0.,-4.,-10.5,100.;                                      57P     34
110,4.,-10.5,0.,-4.,-10.5,0.;                                         59P     35
110,4.,-10.5,0.,4.,-10.5,100.;                                        61P     36
110,-4.,-10.5,100.,-6.75,-8.,100.;                                    63P     37
110,-6.75,-8.,0.,-6.75,-8.,100.;                                      65P     38
110,-4.,-10.5,0.,-6.75,-8.,0.;                                        67P     39
110,-6.75,-8.,100.,-6.75,0.,100.;                                     69P     40
110,-6.75,0.,0.,-6.75,0.,100.;                                        71P     41
110,-6.75,-8.,0.,-6.75,0.,0.;                                         73P     42
110,-6.75,0.,100.,-4.,0.,100.;                                        75P     43
110,-4.,0.,0.,-4.,0.,100.;                                            77P     44
110,-6.75,0.,0.,-4.,0.,0.;                                            79P     45
110,-4.,0.,100.,-4.,29.5,100.;                                        81P     46
110,-4.,29.5,0.,-4.,29.5,100.;                                        83P     47
110,-4.,0.,0.,-4.,29.5,0.;                                            85P     48
110,-4.,29.5,100.,4.,29.5,100.;                                       87P     49
110,4.,29.5,0.,4.,29.5,100.;                                          89P     50
110,-4.,29.5,0.,4.,29.5,0.;                                           91P     51
110,4.,29.5,100.,4.,0.,100.;                                          93P     52
110,4.,0.,0.,4.,0.,100.;                                              95P     53
110,4.,29.5,0.,4.,0.,0.;                                              97P     54
110,4.,0.,100.,6.75,0.,100.;                                          99P     55
110,6.75,0.,0.,6.75,0.,100.;                                         101P     56
110,4.,0.,0.,6.75,0.,0.;                                             103P     57
110,6.75,0.,100.,6.75,-8.,100.;                                      105P     58
110,6.75,-8.,0.,6.75,-8.,100.;                                       107P     59
110,6.75,0.,0.,6.75,-8.,0.;                                          109P     60
110,6.75,-8.,100.,4.,-10.5,100.;                                     111P     61
110,6.75,-8.,0.,4.,-10.5,0.;                                         113P     62
190,187,139,141;                                                     115P     63
190,189,143,145;                                                     117P     64
190,191,147,149;                                                     119P     65
190,193,151,153;                                                     121P     66
190,195,155,157;                                                     123P     67
190,197,159,161;                                                     125P     68
190,199,163,165;                                                     127P     69
190,201,167,169;                                                     129P     70
190,203,171,173;                                                     131P     71
190,205,175,177;                                                     133P     72
190,207,179,181;                                                     135P     73
190,209,183,185;                                                     137P     74
123,0.,-1.,0.;                                                       139P     75
123,0.,0.,-1.;                                                       141P     76
123,-0.672672793996313,-0.739940073395944,0.;                        143P     77
123,0.,0.,1.;                                                        145P     78
123,-1.,0.,0.;                                                       147P     79
123,0.,0.,1.;                                                        149P     80
123,0.,1.,0.;                                                        151P     81
123,0.,0.,1.;                                                        153P     82
123,-1.,0.,0.;                                                       155P     83
123,0.,0.,1.;                                                        157P     84
123,0.,1.,0.;                                                        159P     85
123,0.,0.,1.;                                                        161P     86
123,1.,0.,0.;                                                        163P     87
123,0.,0.,-1.;                                                       165P     88
123,0.,1.,0.;                                                        167P     89
123,0.,0.,1.;                                                        169P     90
123,1.,0.,0.;                                                        171P     91
123,0.,0.,-1.;                                                       173P     92
123,0.672672793996313,-0.739940073395944,0.;                         175P     93
123,0.,0.,-1.;                                                       177P     94
123,0.,0.,1.;                                                        179P     95
123,1.,0.,0.;                                                        181P     96
123,-0.,-0.,-1.;                                                     183P     97
123,1.,0.,0.;                                                        185P     98
116,4.,-10.5,0.,0;                                                   187P     99
116,-4.,-10.5,0.,0;                                                  189P    100
116,-6.75,-8.,0.,0;                                                  191P    101
116,-6.75,0.,0.,0;                                                   193P    102
116,-4.,0.,0.,0;                                                     195P    103
116,-4.,29.5,0.,0;                                                   197P    104
116,4.,29.5,0.,0;                                                    199P    105
116,4.,0.,0.,0;                                                      201P    106
116,6.75,0.,0.,0;                                                    203P    107
116,6.75,-8.,0.,0;                                                   205P    108
116,0.,9.5,100.,0;                                                   207P    109
116,0.,9.5,0.,0;                                                     209P    110
502,20,4.,-10.5,100.,-4.,-10.5,100.,-4.,-10.5,0.,4.,-10.5,0.,        211P    111
-6.75,-8.,100.,-6.75,-8.,0.,-6.75,0.,100.,-6.75,0.,0.,-4.,0.,        211P    112
100.,-4.,0.,0.,-4.,29.5,100.,-4.,29.5,0.,4.,29.5,100.,4.,29.5,       211P    113
0.,4.,0.,100.,4.,0.,0.,6.75,0.,100.,6.75,0.,0.,6.75,-8.,100.,        211P    114
6.75,-8.,0.;                                                         211P    115
504,30,55,211,1,211,2,57,211,3,211,2,59,211,4,211,3,61,211,4,        213P    116
211,1,63,211,2,211,5,65,211,6,211,5,67,211,3,211,6,69,211,5,211,     213P    117
7,71,211,8,211,7,73,211,6,211,8,75,211,7,211,9,77,211,10,211,9,      213P    118
79,211,8,211,10,81,211,9,211,11,83,211,12,211,11,85,211,10,211,      213P    119
12,87,211,11,211,13,89,211,14,211,13,91,211,12,211,14,93,211,13,     213P    120
211,15,95,211,16,211,15,97,211,14,211,16,99,211,15,211,17,101,       213P    121
211,18,211,17,103,211,16,211,18,105,211,17,211,19,107,211,20,        213P    122
211,19,109,211,18,211,20,111,211,19,211,1,113,211,20,211,4;          213P    123
406,1,8HTěleso1;                                                    215P    124
314,74.9019607843137,74.9019607843137,74.9019607843137,;             217P    125
314,52.9411764705882,52.9411764705882,52.9411764705882,;             219P    126
S      1G      2D    220P    126                                        T      1
