ISO-10303-21;
HEADER;
/* Generated by software containing ST-Developer
 * from STEP Tools, Inc. (www.steptools.com) 
 */

FILE_DESCRIPTION(
/* description */ ('Univerz\X\E1ln\X\ED profil'),
/* implementation_level */ '2;1');

FILE_NAME(
/* name */ 'C:\\Vault_pracovn\X\ED\\Zak\X\E1zky\\Kal\X\E1b_pokus\\7006
20.stp',
/* time_stamp */ '2014-08-18T13:56:16+02:00',
/* author */ ('jank'),
/* organization */ (''),
/* preprocessor_version */ 'ST-DEVELOPER v15.2',
/* originating_system */ 'Autodesk Inventor 2014',
/* authorisation */ '');

FILE_SCHEMA (('CONFIG_CONTROL_DESIGN'));
ENDSEC;

DATA;
#10=ITEM_DEFINED_TRANSFORMATION($,$,#237,#251);
#11=(
REPRESENTATION_RELATIONSHIP($,$,#392,#393)
REPRESENTATION_RELATIONSHIP_WITH_TRANSFORMATION(#10)
SHAPE_REPRESENTATION_RELATIONSHIP()
);
#12=CONTEXT_DEPENDENT_SHAPE_REPRESENTATION(#11,#391);
#13=NEXT_ASSEMBLY_USAGE_OCCURRENCE('700620-100:1',$,$,#396,#395,$);
#14=SHAPE_REPRESENTATION_RELATIONSHIP('SRR','None',#392,#15);
#15=ADVANCED_BREP_SHAPE_REPRESENTATION($,(#236),#379);
#16=STYLED_ITEM($,(#404),#236);
#17=FACE_OUTER_BOUND($,#29,.T.);
#18=FACE_OUTER_BOUND($,#30,.T.);
#19=FACE_OUTER_BOUND($,#31,.T.);
#20=FACE_OUTER_BOUND($,#32,.T.);
#21=FACE_OUTER_BOUND($,#33,.T.);
#22=FACE_OUTER_BOUND($,#34,.T.);
#23=FACE_OUTER_BOUND($,#35,.T.);
#24=FACE_OUTER_BOUND($,#36,.T.);
#25=FACE_OUTER_BOUND($,#37,.T.);
#26=FACE_OUTER_BOUND($,#38,.T.);
#27=FACE_OUTER_BOUND($,#39,.T.);
#28=FACE_OUTER_BOUND($,#40,.T.);
#29=EDGE_LOOP($,(#151,#152,#153,#154));
#30=EDGE_LOOP($,(#155,#156,#157,#158));
#31=EDGE_LOOP($,(#159,#160,#161,#162));
#32=EDGE_LOOP($,(#163,#164,#165,#166));
#33=EDGE_LOOP($,(#167,#168,#169,#170));
#34=EDGE_LOOP($,(#171,#172,#173,#174));
#35=EDGE_LOOP($,(#175,#176,#177,#178));
#36=EDGE_LOOP($,(#179,#180,#181,#182));
#37=EDGE_LOOP($,(#183,#184,#185,#186));
#38=EDGE_LOOP($,(#187,#188,#189,#190));
#39=EDGE_LOOP($,(#191,#192,#193,#194,#195,#196,#197,#198,#199,#200));
#40=EDGE_LOOP($,(#201,#202,#203,#204,#205,#206,#207,#208,#209,#210));
#41=LINE($,#316,#71);
#42=LINE($,#318,#72);
#43=LINE($,#320,#73);
#44=LINE($,#321,#74);
#45=LINE($,#324,#75);
#46=LINE($,#326,#76);
#47=LINE($,#327,#77);
#48=LINE($,#330,#78);
#49=LINE($,#332,#79);
#50=LINE($,#333,#80);
#51=LINE($,#336,#81);
#52=LINE($,#338,#82);
#53=LINE($,#339,#83);
#54=LINE($,#342,#84);
#55=LINE($,#344,#85);
#56=LINE($,#345,#86);
#57=LINE($,#348,#87);
#58=LINE($,#350,#88);
#59=LINE($,#351,#89);
#60=LINE($,#354,#90);
#61=LINE($,#356,#91);
#62=LINE($,#357,#92);
#63=LINE($,#360,#93);
#64=LINE($,#362,#94);
#65=LINE($,#363,#95);
#66=LINE($,#366,#96);
#67=LINE($,#368,#97);
#68=LINE($,#369,#98);
#69=LINE($,#371,#99);
#70=LINE($,#372,#100);
#71=VECTOR($,#256,4.);
#72=VECTOR($,#257,100.);
#73=VECTOR($,#258,4.);
#74=VECTOR($,#259,100.);
#75=VECTOR($,#262,4.24264068711928);
#76=VECTOR($,#263,100.);
#77=VECTOR($,#264,4.24264068711928);
#78=VECTOR($,#267,4.5);
#79=VECTOR($,#268,100.);
#80=VECTOR($,#269,4.5);
#81=VECTOR($,#272,2.);
#82=VECTOR($,#273,100.);
#83=VECTOR($,#274,2.);
#84=VECTOR($,#277,12.5);
#85=VECTOR($,#278,100.);
#86=VECTOR($,#279,12.5);
#87=VECTOR($,#282,6.);
#88=VECTOR($,#283,100.);
#89=VECTOR($,#284,6.);
#90=VECTOR($,#287,12.5);
#91=VECTOR($,#288,100.);
#92=VECTOR($,#289,12.5);
#93=VECTOR($,#292,2.);
#94=VECTOR($,#293,100.);
#95=VECTOR($,#294,2.);
#96=VECTOR($,#297,4.5);
#97=VECTOR($,#298,100.);
#98=VECTOR($,#299,4.5);
#99=VECTOR($,#302,4.24264068711928);
#100=VECTOR($,#303,4.24264068711928);
#101=VERTEX_POINT($,#314);
#102=VERTEX_POINT($,#315);
#103=VERTEX_POINT($,#317);
#104=VERTEX_POINT($,#319);
#105=VERTEX_POINT($,#323);
#106=VERTEX_POINT($,#325);
#107=VERTEX_POINT($,#329);
#108=VERTEX_POINT($,#331);
#109=VERTEX_POINT($,#335);
#110=VERTEX_POINT($,#337);
#111=VERTEX_POINT($,#341);
#112=VERTEX_POINT($,#343);
#113=VERTEX_POINT($,#347);
#114=VERTEX_POINT($,#349);
#115=VERTEX_POINT($,#353);
#116=VERTEX_POINT($,#355);
#117=VERTEX_POINT($,#359);
#118=VERTEX_POINT($,#361);
#119=VERTEX_POINT($,#365);
#120=VERTEX_POINT($,#367);
#121=EDGE_CURVE($,#101,#102,#41,.T.);
#122=EDGE_CURVE($,#103,#102,#42,.T.);
#123=EDGE_CURVE($,#104,#103,#43,.T.);
#124=EDGE_CURVE($,#104,#101,#44,.T.);
#125=EDGE_CURVE($,#102,#105,#45,.T.);
#126=EDGE_CURVE($,#106,#105,#46,.T.);
#127=EDGE_CURVE($,#103,#106,#47,.T.);
#128=EDGE_CURVE($,#105,#107,#48,.T.);
#129=EDGE_CURVE($,#108,#107,#49,.T.);
#130=EDGE_CURVE($,#106,#108,#50,.T.);
#131=EDGE_CURVE($,#107,#109,#51,.T.);
#132=EDGE_CURVE($,#110,#109,#52,.T.);
#133=EDGE_CURVE($,#108,#110,#53,.T.);
#134=EDGE_CURVE($,#109,#111,#54,.T.);
#135=EDGE_CURVE($,#112,#111,#55,.T.);
#136=EDGE_CURVE($,#110,#112,#56,.T.);
#137=EDGE_CURVE($,#111,#113,#57,.T.);
#138=EDGE_CURVE($,#114,#113,#58,.T.);
#139=EDGE_CURVE($,#112,#114,#59,.T.);
#140=EDGE_CURVE($,#113,#115,#60,.T.);
#141=EDGE_CURVE($,#116,#115,#61,.T.);
#142=EDGE_CURVE($,#114,#116,#62,.T.);
#143=EDGE_CURVE($,#115,#117,#63,.T.);
#144=EDGE_CURVE($,#118,#117,#64,.T.);
#145=EDGE_CURVE($,#116,#118,#65,.T.);
#146=EDGE_CURVE($,#117,#119,#66,.T.);
#147=EDGE_CURVE($,#120,#119,#67,.T.);
#148=EDGE_CURVE($,#118,#120,#68,.T.);
#149=EDGE_CURVE($,#119,#101,#69,.T.);
#150=EDGE_CURVE($,#120,#104,#70,.T.);
#151=ORIENTED_EDGE($,*,*,#121,.T.);
#152=ORIENTED_EDGE($,*,*,#122,.F.);
#153=ORIENTED_EDGE($,*,*,#123,.F.);
#154=ORIENTED_EDGE($,*,*,#124,.T.);
#155=ORIENTED_EDGE($,*,*,#125,.T.);
#156=ORIENTED_EDGE($,*,*,#126,.F.);
#157=ORIENTED_EDGE($,*,*,#127,.F.);
#158=ORIENTED_EDGE($,*,*,#122,.T.);
#159=ORIENTED_EDGE($,*,*,#128,.T.);
#160=ORIENTED_EDGE($,*,*,#129,.F.);
#161=ORIENTED_EDGE($,*,*,#130,.F.);
#162=ORIENTED_EDGE($,*,*,#126,.T.);
#163=ORIENTED_EDGE($,*,*,#131,.T.);
#164=ORIENTED_EDGE($,*,*,#132,.F.);
#165=ORIENTED_EDGE($,*,*,#133,.F.);
#166=ORIENTED_EDGE($,*,*,#129,.T.);
#167=ORIENTED_EDGE($,*,*,#134,.T.);
#168=ORIENTED_EDGE($,*,*,#135,.F.);
#169=ORIENTED_EDGE($,*,*,#136,.F.);
#170=ORIENTED_EDGE($,*,*,#132,.T.);
#171=ORIENTED_EDGE($,*,*,#137,.T.);
#172=ORIENTED_EDGE($,*,*,#138,.F.);
#173=ORIENTED_EDGE($,*,*,#139,.F.);
#174=ORIENTED_EDGE($,*,*,#135,.T.);
#175=ORIENTED_EDGE($,*,*,#140,.T.);
#176=ORIENTED_EDGE($,*,*,#141,.F.);
#177=ORIENTED_EDGE($,*,*,#142,.F.);
#178=ORIENTED_EDGE($,*,*,#138,.T.);
#179=ORIENTED_EDGE($,*,*,#143,.T.);
#180=ORIENTED_EDGE($,*,*,#144,.F.);
#181=ORIENTED_EDGE($,*,*,#145,.F.);
#182=ORIENTED_EDGE($,*,*,#141,.T.);
#183=ORIENTED_EDGE($,*,*,#146,.T.);
#184=ORIENTED_EDGE($,*,*,#147,.F.);
#185=ORIENTED_EDGE($,*,*,#148,.F.);
#186=ORIENTED_EDGE($,*,*,#144,.T.);
#187=ORIENTED_EDGE($,*,*,#149,.T.);
#188=ORIENTED_EDGE($,*,*,#124,.F.);
#189=ORIENTED_EDGE($,*,*,#150,.F.);
#190=ORIENTED_EDGE($,*,*,#147,.T.);
#191=ORIENTED_EDGE($,*,*,#137,.F.);
#192=ORIENTED_EDGE($,*,*,#134,.F.);
#193=ORIENTED_EDGE($,*,*,#131,.F.);
#194=ORIENTED_EDGE($,*,*,#128,.F.);
#195=ORIENTED_EDGE($,*,*,#125,.F.);
#196=ORIENTED_EDGE($,*,*,#121,.F.);
#197=ORIENTED_EDGE($,*,*,#149,.F.);
#198=ORIENTED_EDGE($,*,*,#146,.F.);
#199=ORIENTED_EDGE($,*,*,#143,.F.);
#200=ORIENTED_EDGE($,*,*,#140,.F.);
#201=ORIENTED_EDGE($,*,*,#139,.T.);
#202=ORIENTED_EDGE($,*,*,#142,.T.);
#203=ORIENTED_EDGE($,*,*,#145,.T.);
#204=ORIENTED_EDGE($,*,*,#148,.T.);
#205=ORIENTED_EDGE($,*,*,#150,.T.);
#206=ORIENTED_EDGE($,*,*,#123,.T.);
#207=ORIENTED_EDGE($,*,*,#127,.T.);
#208=ORIENTED_EDGE($,*,*,#130,.T.);
#209=ORIENTED_EDGE($,*,*,#133,.T.);
#210=ORIENTED_EDGE($,*,*,#136,.T.);
#211=PLANE($,#238);
#212=PLANE($,#239);
#213=PLANE($,#240);
#214=PLANE($,#241);
#215=PLANE($,#242);
#216=PLANE($,#243);
#217=PLANE($,#244);
#218=PLANE($,#245);
#219=PLANE($,#246);
#220=PLANE($,#247);
#221=PLANE($,#248);
#222=PLANE($,#249);
#223=ADVANCED_FACE($,(#17),#211,.T.);
#224=ADVANCED_FACE($,(#18),#212,.T.);
#225=ADVANCED_FACE($,(#19),#213,.T.);
#226=ADVANCED_FACE($,(#20),#214,.T.);
#227=ADVANCED_FACE($,(#21),#215,.T.);
#228=ADVANCED_FACE($,(#22),#216,.T.);
#229=ADVANCED_FACE($,(#23),#217,.T.);
#230=ADVANCED_FACE($,(#24),#218,.T.);
#231=ADVANCED_FACE($,(#25),#219,.T.);
#232=ADVANCED_FACE($,(#26),#220,.T.);
#233=ADVANCED_FACE($,(#27),#221,.T.);
#234=ADVANCED_FACE($,(#28),#222,.F.);
#235=CLOSED_SHELL($,(#223,#224,#225,#226,#227,#228,#229,#230,#231,#232,
#233,#234));
#236=MANIFOLD_SOLID_BREP('T\X2\011B\X0\leso1',#235);
#237=AXIS2_PLACEMENT_3D('placement',#312,#252,#253);
#238=AXIS2_PLACEMENT_3D($,#313,#254,#255);
#239=AXIS2_PLACEMENT_3D($,#322,#260,#261);
#240=AXIS2_PLACEMENT_3D($,#328,#265,#266);
#241=AXIS2_PLACEMENT_3D($,#334,#270,#271);
#242=AXIS2_PLACEMENT_3D($,#340,#275,#276);
#243=AXIS2_PLACEMENT_3D($,#346,#280,#281);
#244=AXIS2_PLACEMENT_3D($,#352,#285,#286);
#245=AXIS2_PLACEMENT_3D($,#358,#290,#291);
#246=AXIS2_PLACEMENT_3D($,#364,#295,#296);
#247=AXIS2_PLACEMENT_3D($,#370,#300,#301);
#248=AXIS2_PLACEMENT_3D($,#373,#304,#305);
#249=AXIS2_PLACEMENT_3D($,#374,#306,#307);
#250=AXIS2_PLACEMENT_3D('placement',#375,#308,#309);
#251=AXIS2_PLACEMENT_3D($,#376,#310,#311);
#252=DIRECTION('axis',(0.,0.,1.));
#253=DIRECTION('refdir',(1.,0.,0.));
#254=DIRECTION('center_axis',(0.,-1.,0.));
#255=DIRECTION('ref_axis',(0.,0.,-1.));
#256=DIRECTION($,(-1.,0.,0.));
#257=DIRECTION($,(0.,0.,1.));
#258=DIRECTION($,(-1.,0.,0.));
#259=DIRECTION($,(0.,0.,1.));
#260=DIRECTION('center_axis',(-0.707106781186547,-0.707106781186548,0.));
#261=DIRECTION('ref_axis',(0.,0.,1.));
#262=DIRECTION($,(-0.707106781186548,0.707106781186547,0.));
#263=DIRECTION($,(0.,0.,1.));
#264=DIRECTION($,(-0.707106781186548,0.707106781186547,0.));
#265=DIRECTION('center_axis',(-1.,0.,0.));
#266=DIRECTION('ref_axis',(0.,0.,1.));
#267=DIRECTION($,(0.,1.,0.));
#268=DIRECTION($,(0.,0.,1.));
#269=DIRECTION($,(0.,1.,0.));
#270=DIRECTION('center_axis',(0.,1.,0.));
#271=DIRECTION('ref_axis',(0.,0.,1.));
#272=DIRECTION($,(1.,0.,0.));
#273=DIRECTION($,(0.,0.,1.));
#274=DIRECTION($,(1.,0.,0.));
#275=DIRECTION('center_axis',(-1.,0.,0.));
#276=DIRECTION('ref_axis',(0.,0.,1.));
#277=DIRECTION($,(0.,1.,0.));
#278=DIRECTION($,(0.,0.,1.));
#279=DIRECTION($,(0.,1.,0.));
#280=DIRECTION('center_axis',(0.,1.,0.));
#281=DIRECTION('ref_axis',(0.,0.,1.));
#282=DIRECTION($,(1.,0.,0.));
#283=DIRECTION($,(0.,0.,1.));
#284=DIRECTION($,(1.,0.,0.));
#285=DIRECTION('center_axis',(1.,0.,0.));
#286=DIRECTION('ref_axis',(0.,0.,-1.));
#287=DIRECTION($,(0.,-1.,0.));
#288=DIRECTION($,(0.,0.,1.));
#289=DIRECTION($,(0.,-1.,0.));
#290=DIRECTION('center_axis',(0.,1.,0.));
#291=DIRECTION('ref_axis',(0.,0.,1.));
#292=DIRECTION($,(1.,0.,0.));
#293=DIRECTION($,(0.,0.,1.));
#294=DIRECTION($,(1.,0.,0.));
#295=DIRECTION('center_axis',(1.,0.,0.));
#296=DIRECTION('ref_axis',(0.,0.,-1.));
#297=DIRECTION($,(0.,-1.,0.));
#298=DIRECTION($,(0.,0.,1.));
#299=DIRECTION($,(0.,-1.,0.));
#300=DIRECTION('center_axis',(0.707106781186547,-0.707106781186548,0.));
#301=DIRECTION('ref_axis',(0.,0.,-1.));
#302=DIRECTION($,(-0.707106781186548,-0.707106781186547,0.));
#303=DIRECTION($,(-0.707106781186548,-0.707106781186547,0.));
#304=DIRECTION('center_axis',(0.,0.,1.));
#305=DIRECTION('ref_axis',(1.,0.,0.));
#306=DIRECTION('center_axis',(0.,0.,1.));
#307=DIRECTION('ref_axis',(1.,0.,0.));
#308=DIRECTION('axis',(0.,0.,1.));
#309=DIRECTION('refdir',(1.,0.,0.));
#310=DIRECTION($,(0.,0.,1.));
#311=DIRECTION($,(1.,0.,0.));
#312=CARTESIAN_POINT('',(0.,0.,0.));
#313=CARTESIAN_POINT('Origin',(2.,-10.,0.));
#314=CARTESIAN_POINT('',(2.,-10.,100.));
#315=CARTESIAN_POINT('',(-2.,-10.,100.));
#316=CARTESIAN_POINT($,(1.,-10.,100.));
#317=CARTESIAN_POINT('',(-2.,-10.,0.));
#318=CARTESIAN_POINT($,(-2.,-10.,0.));
#319=CARTESIAN_POINT('',(2.,-10.,0.));
#320=CARTESIAN_POINT($,(1.,-10.,0.));
#321=CARTESIAN_POINT($,(2.,-10.,0.));
#322=CARTESIAN_POINT('Origin',(-2.,-10.,0.));
#323=CARTESIAN_POINT('',(-5.,-7.,100.));
#324=CARTESIAN_POINT($,(-4.,-8.,100.));
#325=CARTESIAN_POINT('',(-5.,-7.,0.));
#326=CARTESIAN_POINT($,(-5.,-7.,0.));
#327=CARTESIAN_POINT($,(-4.,-8.,0.));
#328=CARTESIAN_POINT('Origin',(-5.,-7.,0.));
#329=CARTESIAN_POINT('',(-5.,-2.5,100.));
#330=CARTESIAN_POINT($,(-5.,-3.5,100.));
#331=CARTESIAN_POINT('',(-5.,-2.5,0.));
#332=CARTESIAN_POINT($,(-5.,-2.5,0.));
#333=CARTESIAN_POINT($,(-5.,-3.5,0.));
#334=CARTESIAN_POINT('Origin',(-5.,-2.5,0.));
#335=CARTESIAN_POINT('',(-3.,-2.5,100.));
#336=CARTESIAN_POINT($,(-2.5,-2.5,100.));
#337=CARTESIAN_POINT('',(-3.,-2.5,0.));
#338=CARTESIAN_POINT($,(-3.,-2.5,0.));
#339=CARTESIAN_POINT($,(-2.5,-2.5,0.));
#340=CARTESIAN_POINT('Origin',(-3.,-2.5,0.));
#341=CARTESIAN_POINT('',(-3.,10.,100.));
#342=CARTESIAN_POINT($,(-3.,-1.25,100.));
#343=CARTESIAN_POINT('',(-3.,10.,0.));
#344=CARTESIAN_POINT($,(-3.,10.,0.));
#345=CARTESIAN_POINT($,(-3.,-1.25,0.));
#346=CARTESIAN_POINT('Origin',(-3.,10.,0.));
#347=CARTESIAN_POINT('',(3.,10.,100.));
#348=CARTESIAN_POINT($,(-1.5,10.,100.));
#349=CARTESIAN_POINT('',(3.,10.,0.));
#350=CARTESIAN_POINT($,(3.,10.,0.));
#351=CARTESIAN_POINT($,(-1.5,10.,0.));
#352=CARTESIAN_POINT('Origin',(3.,10.,0.));
#353=CARTESIAN_POINT('',(3.,-2.5,100.));
#354=CARTESIAN_POINT($,(3.,5.,100.));
#355=CARTESIAN_POINT('',(3.,-2.5,0.));
#356=CARTESIAN_POINT($,(3.,-2.5,0.));
#357=CARTESIAN_POINT($,(3.,5.,0.));
#358=CARTESIAN_POINT('Origin',(3.,-2.5,0.));
#359=CARTESIAN_POINT('',(5.,-2.5,100.));
#360=CARTESIAN_POINT($,(1.5,-2.5,100.));
#361=CARTESIAN_POINT('',(5.,-2.5,0.));
#362=CARTESIAN_POINT($,(5.,-2.5,0.));
#363=CARTESIAN_POINT($,(1.5,-2.5,0.));
#364=CARTESIAN_POINT('Origin',(5.,-2.5,0.));
#365=CARTESIAN_POINT('',(5.,-7.,100.));
#366=CARTESIAN_POINT($,(5.,-1.25,100.));
#367=CARTESIAN_POINT('',(5.,-7.,0.));
#368=CARTESIAN_POINT($,(5.,-7.,0.));
#369=CARTESIAN_POINT($,(5.,-1.25,0.));
#370=CARTESIAN_POINT('Origin',(5.,-7.,0.));
#371=CARTESIAN_POINT($,(5.5,-6.5,100.));
#372=CARTESIAN_POINT($,(5.5,-6.5,0.));
#373=CARTESIAN_POINT('Origin',(0.,0.,100.));
#374=CARTESIAN_POINT('Origin',(0.,0.,0.));
#375=CARTESIAN_POINT('',(0.,0.,0.));
#376=CARTESIAN_POINT($,(-6.55976666610026,-6.92419828441983,-50.));
#377=UNCERTAINTY_MEASURE_WITH_UNIT(LENGTH_MEASURE(0.01),#381,
'DISTANCE_ACCURACY_VALUE',
'Maximum model space distance between geometric entities at asserted c
onnectivities');
#378=UNCERTAINTY_MEASURE_WITH_UNIT(LENGTH_MEASURE(0.01),#381,
'DISTANCE_ACCURACY_VALUE',
'Maximum model space distance between geometric entities at asserted c
onnectivities');
#379=(
GEOMETRIC_REPRESENTATION_CONTEXT(3)
GLOBAL_UNCERTAINTY_ASSIGNED_CONTEXT((#377))
GLOBAL_UNIT_ASSIGNED_CONTEXT((#381,#384,#382))
REPRESENTATION_CONTEXT('','3D')
);
#380=(
GEOMETRIC_REPRESENTATION_CONTEXT(3)
GLOBAL_UNCERTAINTY_ASSIGNED_CONTEXT((#378))
GLOBAL_UNIT_ASSIGNED_CONTEXT((#381,#384,#382))
REPRESENTATION_CONTEXT('','3D')
);
#381=(
LENGTH_UNIT()
NAMED_UNIT(*)
SI_UNIT(.MILLI.,.METRE.)
);
#382=(
NAMED_UNIT(*)
SI_UNIT($,.STERADIAN.)
SOLID_ANGLE_UNIT()
);
#383=DIMENSIONAL_EXPONENTS(0.,0.,0.,0.,0.,0.,0.);
#384=(
CONVERSION_BASED_UNIT('degree',#386)
NAMED_UNIT(#383)
PLANE_ANGLE_UNIT()
);
#385=(
NAMED_UNIT(*)
PLANE_ANGLE_UNIT()
SI_UNIT($,.RADIAN.)
);
#386=PLANE_ANGLE_MEASURE_WITH_UNIT(PLANE_ANGLE_MEASURE(0.01745329252),#385);
#387=SHAPE_DEFINITION_REPRESENTATION(#389,#392);
#388=SHAPE_DEFINITION_REPRESENTATION(#390,#393);
#389=PRODUCT_DEFINITION_SHAPE('',$,#395);
#390=PRODUCT_DEFINITION_SHAPE('',$,#396);
#391=PRODUCT_DEFINITION_SHAPE($,$,#13);
#392=SHAPE_REPRESENTATION('',(#237),#379);
#393=SHAPE_REPRESENTATION('',(#250,#251),#380);
#394=DESIGN_CONTEXT('3D Mechanical Parts',#400,'design');
#395=PRODUCT_DEFINITION('-700620-1','-700620-1',#397,#394);
#396=PRODUCT_DEFINITION('Sestava1','Sestava1',#398,#394);
#397=PRODUCT_DEFINITION_FORMATION('',$,#402);
#398=PRODUCT_DEFINITION_FORMATION('',$,#403);
#399=APPLICATION_PROTOCOL_DEFINITION('international standard',
'ap203_configuration_controlled_3d_design_of_mechanical_parts_and_asse
mblies_mim_lf',2004,#400);
#400=APPLICATION_CONTEXT(
'Configuration Controlled 3D Design of Mechanical Parts and Assemblies');
#401=MECHANICAL_CONTEXT('3D Mechanical Parts',#400,'mechanical');
#402=PRODUCT('-700620-1','-700620-1',$,(#401));
#403=PRODUCT('Sestava1','Sestava1',$,(#401));
#404=PRESENTATION_STYLE_ASSIGNMENT((#405));
#405=SURFACE_STYLE_USAGE(.BOTH.,#406);
#406=SURFACE_SIDE_STYLE($,(#407));
#407=SURFACE_STYLE_FILL_AREA(#408);
#408=FILL_AREA_STYLE($,(#409));
#409=FILL_AREA_STYLE_COLOUR($,#410);
#410=COLOUR_RGB('',0.529411764705882,0.529411764705882,0.529411764705882);
ENDSEC;
END-ISO-10303-21;
