ISO-10303-21;
HEADER;
/* Generated by software containing ST-Developer
 * from STEP Tools, Inc. (www.steptools.com) 
 */

FILE_DESCRIPTION(
/* description */ (''),
/* implementation_level */ '2;1');

FILE_NAME(
/* name */ 'X:\\Work\\Zakazky\\2015\\AlutecKK\\katalog\\info2\\729302.
stp',
/* time_stamp */ '2016-05-18T08:48:10+02:00',
/* author */ ('veronika.franceova'),
/* organization */ (''),
/* preprocessor_version */ 'ST-DEVELOPER v15.2',
/* originating_system */ 'Autodesk Inventor 2014',
/* authorisation */ '');

FILE_SCHEMA (('AUTOMOTIVE_DESIGN { 1 0 10303 214 3 1 1 }'));
ENDSEC;

DATA;
#10=MECHANICAL_DESIGN_GEOMETRIC_PRESENTATION_REPRESENTATION('',(#16,#17,
#19,#15,#18,#14,#20,#13),#412);
#11=SHAPE_REPRESENTATION_RELATIONSHIP('SRR','None',#421,#12);
#12=ADVANCED_BREP_SHAPE_REPRESENTATION($,(#221,#222,#223,#224,#225,#226,
#227,#228),#411);
#13=STYLED_ITEM('',(#430),#221);
#14=STYLED_ITEM('',(#430),#222);
#15=STYLED_ITEM('',(#430),#223);
#16=STYLED_ITEM('',(#430),#224);
#17=STYLED_ITEM('',(#430),#225);
#18=STYLED_ITEM('',(#430),#226);
#19=STYLED_ITEM('',(#430),#227);
#20=STYLED_ITEM('',(#430),#228);
#21=PLANE('',#233);
#22=PLANE('',#234);
#23=PLANE('',#238);
#24=PLANE('',#239);
#25=PLANE('',#243);
#26=PLANE('',#244);
#27=PLANE('',#248);
#28=PLANE('',#249);
#29=PLANE('',#250);
#30=PLANE('',#254);
#31=PLANE('',#255);
#32=PLANE('',#259);
#33=PLANE('',#260);
#34=PLANE('',#264);
#35=PLANE('',#265);
#36=PLANE('',#269);
#37=FACE_BOUND('',#70,.T.);
#38=FACE_BOUND('',#74,.T.);
#39=FACE_BOUND('',#78,.T.);
#40=FACE_BOUND('',#82,.T.);
#41=FACE_BOUND('',#87,.T.);
#42=FACE_BOUND('',#91,.T.);
#43=FACE_BOUND('',#95,.T.);
#44=FACE_BOUND('',#99,.T.);
#45=FACE_OUTER_BOUND('',#69,.T.);
#46=FACE_OUTER_BOUND('',#71,.T.);
#47=FACE_OUTER_BOUND('',#72,.T.);
#48=FACE_OUTER_BOUND('',#73,.T.);
#49=FACE_OUTER_BOUND('',#75,.T.);
#50=FACE_OUTER_BOUND('',#76,.T.);
#51=FACE_OUTER_BOUND('',#77,.T.);
#52=FACE_OUTER_BOUND('',#79,.T.);
#53=FACE_OUTER_BOUND('',#80,.T.);
#54=FACE_OUTER_BOUND('',#81,.T.);
#55=FACE_OUTER_BOUND('',#83,.T.);
#56=FACE_OUTER_BOUND('',#84,.T.);
#57=FACE_OUTER_BOUND('',#85,.T.);
#58=FACE_OUTER_BOUND('',#86,.T.);
#59=FACE_OUTER_BOUND('',#88,.T.);
#60=FACE_OUTER_BOUND('',#89,.T.);
#61=FACE_OUTER_BOUND('',#90,.T.);
#62=FACE_OUTER_BOUND('',#92,.T.);
#63=FACE_OUTER_BOUND('',#93,.T.);
#64=FACE_OUTER_BOUND('',#94,.T.);
#65=FACE_OUTER_BOUND('',#96,.T.);
#66=FACE_OUTER_BOUND('',#97,.T.);
#67=FACE_OUTER_BOUND('',#98,.T.);
#68=FACE_OUTER_BOUND('',#100,.T.);
#69=EDGE_LOOP('',(#149));
#70=EDGE_LOOP('',(#150));
#71=EDGE_LOOP('',(#151));
#72=EDGE_LOOP('',(#152));
#73=EDGE_LOOP('',(#153));
#74=EDGE_LOOP('',(#154));
#75=EDGE_LOOP('',(#155));
#76=EDGE_LOOP('',(#156));
#77=EDGE_LOOP('',(#157));
#78=EDGE_LOOP('',(#158));
#79=EDGE_LOOP('',(#159));
#80=EDGE_LOOP('',(#160));
#81=EDGE_LOOP('',(#161));
#82=EDGE_LOOP('',(#162));
#83=EDGE_LOOP('',(#163));
#84=EDGE_LOOP('',(#164));
#85=EDGE_LOOP('',(#165));
#86=EDGE_LOOP('',(#166));
#87=EDGE_LOOP('',(#167));
#88=EDGE_LOOP('',(#168));
#89=EDGE_LOOP('',(#169));
#90=EDGE_LOOP('',(#170));
#91=EDGE_LOOP('',(#171));
#92=EDGE_LOOP('',(#172));
#93=EDGE_LOOP('',(#173));
#94=EDGE_LOOP('',(#174));
#95=EDGE_LOOP('',(#175));
#96=EDGE_LOOP('',(#176));
#97=EDGE_LOOP('',(#177));
#98=EDGE_LOOP('',(#178));
#99=EDGE_LOOP('',(#179));
#100=EDGE_LOOP('',(#180));
#101=CIRCLE('',#231,1.5);
#102=CIRCLE('',#232,1.5);
#103=CIRCLE('',#236,1.5);
#104=CIRCLE('',#237,1.5);
#105=CIRCLE('',#241,1.5);
#106=CIRCLE('',#242,1.5);
#107=CIRCLE('',#246,1.5);
#108=CIRCLE('',#247,1.5);
#109=CIRCLE('',#251,1.5);
#110=CIRCLE('',#253,1.5);
#111=CIRCLE('',#256,1.5);
#112=CIRCLE('',#258,1.5);
#113=CIRCLE('',#261,1.5);
#114=CIRCLE('',#263,1.5);
#115=CIRCLE('',#266,1.5);
#116=CIRCLE('',#268,1.5);
#117=VERTEX_POINT('',#354);
#118=VERTEX_POINT('',#356);
#119=VERTEX_POINT('',#361);
#120=VERTEX_POINT('',#363);
#121=VERTEX_POINT('',#368);
#122=VERTEX_POINT('',#370);
#123=VERTEX_POINT('',#375);
#124=VERTEX_POINT('',#377);
#125=VERTEX_POINT('',#382);
#126=VERTEX_POINT('',#385);
#127=VERTEX_POINT('',#389);
#128=VERTEX_POINT('',#392);
#129=VERTEX_POINT('',#396);
#130=VERTEX_POINT('',#399);
#131=VERTEX_POINT('',#403);
#132=VERTEX_POINT('',#406);
#133=EDGE_CURVE('',#117,#117,#101,.T.);
#134=EDGE_CURVE('',#118,#118,#102,.T.);
#135=EDGE_CURVE('',#119,#119,#103,.T.);
#136=EDGE_CURVE('',#120,#120,#104,.T.);
#137=EDGE_CURVE('',#121,#121,#105,.T.);
#138=EDGE_CURVE('',#122,#122,#106,.T.);
#139=EDGE_CURVE('',#123,#123,#107,.T.);
#140=EDGE_CURVE('',#124,#124,#108,.T.);
#141=EDGE_CURVE('',#125,#125,#109,.T.);
#142=EDGE_CURVE('',#126,#126,#110,.T.);
#143=EDGE_CURVE('',#127,#127,#111,.T.);
#144=EDGE_CURVE('',#128,#128,#112,.T.);
#145=EDGE_CURVE('',#129,#129,#113,.T.);
#146=EDGE_CURVE('',#130,#130,#114,.T.);
#147=EDGE_CURVE('',#131,#131,#115,.T.);
#148=EDGE_CURVE('',#132,#132,#116,.T.);
#149=ORIENTED_EDGE('',*,*,#133,.F.);
#150=ORIENTED_EDGE('',*,*,#134,.T.);
#151=ORIENTED_EDGE('',*,*,#133,.T.);
#152=ORIENTED_EDGE('',*,*,#134,.F.);
#153=ORIENTED_EDGE('',*,*,#135,.F.);
#154=ORIENTED_EDGE('',*,*,#136,.T.);
#155=ORIENTED_EDGE('',*,*,#135,.T.);
#156=ORIENTED_EDGE('',*,*,#136,.F.);
#157=ORIENTED_EDGE('',*,*,#137,.F.);
#158=ORIENTED_EDGE('',*,*,#138,.T.);
#159=ORIENTED_EDGE('',*,*,#137,.T.);
#160=ORIENTED_EDGE('',*,*,#138,.F.);
#161=ORIENTED_EDGE('',*,*,#139,.F.);
#162=ORIENTED_EDGE('',*,*,#140,.T.);
#163=ORIENTED_EDGE('',*,*,#139,.T.);
#164=ORIENTED_EDGE('',*,*,#140,.F.);
#165=ORIENTED_EDGE('',*,*,#141,.T.);
#166=ORIENTED_EDGE('',*,*,#141,.F.);
#167=ORIENTED_EDGE('',*,*,#142,.F.);
#168=ORIENTED_EDGE('',*,*,#142,.T.);
#169=ORIENTED_EDGE('',*,*,#143,.T.);
#170=ORIENTED_EDGE('',*,*,#143,.F.);
#171=ORIENTED_EDGE('',*,*,#144,.F.);
#172=ORIENTED_EDGE('',*,*,#144,.T.);
#173=ORIENTED_EDGE('',*,*,#145,.T.);
#174=ORIENTED_EDGE('',*,*,#145,.F.);
#175=ORIENTED_EDGE('',*,*,#146,.F.);
#176=ORIENTED_EDGE('',*,*,#146,.T.);
#177=ORIENTED_EDGE('',*,*,#147,.T.);
#178=ORIENTED_EDGE('',*,*,#147,.F.);
#179=ORIENTED_EDGE('',*,*,#148,.F.);
#180=ORIENTED_EDGE('',*,*,#148,.T.);
#181=CYLINDRICAL_SURFACE('',#230,1.5);
#182=CYLINDRICAL_SURFACE('',#235,1.5);
#183=CYLINDRICAL_SURFACE('',#240,1.5);
#184=CYLINDRICAL_SURFACE('',#245,1.5);
#185=CYLINDRICAL_SURFACE('',#252,1.5);
#186=CYLINDRICAL_SURFACE('',#257,1.5);
#187=CYLINDRICAL_SURFACE('',#262,1.5);
#188=CYLINDRICAL_SURFACE('',#267,1.5);
#189=ADVANCED_FACE('',(#45,#37),#181,.T.);
#190=ADVANCED_FACE('',(#46),#21,.F.);
#191=ADVANCED_FACE('',(#47),#22,.T.);
#192=ADVANCED_FACE('',(#48,#38),#182,.T.);
#193=ADVANCED_FACE('',(#49),#23,.F.);
#194=ADVANCED_FACE('',(#50),#24,.T.);
#195=ADVANCED_FACE('',(#51,#39),#183,.T.);
#196=ADVANCED_FACE('',(#52),#25,.F.);
#197=ADVANCED_FACE('',(#53),#26,.T.);
#198=ADVANCED_FACE('',(#54,#40),#184,.T.);
#199=ADVANCED_FACE('',(#55),#27,.F.);
#200=ADVANCED_FACE('',(#56),#28,.T.);
#201=ADVANCED_FACE('',(#57),#29,.F.);
#202=ADVANCED_FACE('',(#58,#41),#185,.T.);
#203=ADVANCED_FACE('',(#59),#30,.T.);
#204=ADVANCED_FACE('',(#60),#31,.F.);
#205=ADVANCED_FACE('',(#61,#42),#186,.T.);
#206=ADVANCED_FACE('',(#62),#32,.T.);
#207=ADVANCED_FACE('',(#63),#33,.F.);
#208=ADVANCED_FACE('',(#64,#43),#187,.T.);
#209=ADVANCED_FACE('',(#65),#34,.T.);
#210=ADVANCED_FACE('',(#66),#35,.F.);
#211=ADVANCED_FACE('',(#67,#44),#188,.T.);
#212=ADVANCED_FACE('',(#68),#36,.T.);
#213=CLOSED_SHELL('',(#189,#190,#191));
#214=CLOSED_SHELL('',(#192,#193,#194));
#215=CLOSED_SHELL('',(#195,#196,#197));
#216=CLOSED_SHELL('',(#198,#199,#200));
#217=CLOSED_SHELL('',(#201,#202,#203));
#218=CLOSED_SHELL('',(#204,#205,#206));
#219=CLOSED_SHELL('',(#207,#208,#209));
#220=CLOSED_SHELL('',(#210,#211,#212));
#221=MANIFOLD_SOLID_BREP('T\X2\011B\X0\leso1',#213);
#222=MANIFOLD_SOLID_BREP('T\X2\011B\X0\leso1',#214);
#223=MANIFOLD_SOLID_BREP('T\X2\011B\X0\leso1',#215);
#224=MANIFOLD_SOLID_BREP('T\X2\011B\X0\leso1',#216);
#225=MANIFOLD_SOLID_BREP('T\X2\011B\X0\leso1',#217);
#226=MANIFOLD_SOLID_BREP('T\X2\011B\X0\leso1',#218);
#227=MANIFOLD_SOLID_BREP('T\X2\011B\X0\leso1',#219);
#228=MANIFOLD_SOLID_BREP('T\X2\011B\X0\leso1',#220);
#229=AXIS2_PLACEMENT_3D('placement',#352,#270,#271);
#230=AXIS2_PLACEMENT_3D('',#353,#272,#273);
#231=AXIS2_PLACEMENT_3D('',#355,#274,#275);
#232=AXIS2_PLACEMENT_3D('',#357,#276,#277);
#233=AXIS2_PLACEMENT_3D('',#358,#278,#279);
#234=AXIS2_PLACEMENT_3D('',#359,#280,#281);
#235=AXIS2_PLACEMENT_3D('',#360,#282,#283);
#236=AXIS2_PLACEMENT_3D('',#362,#284,#285);
#237=AXIS2_PLACEMENT_3D('',#364,#286,#287);
#238=AXIS2_PLACEMENT_3D('',#365,#288,#289);
#239=AXIS2_PLACEMENT_3D('',#366,#290,#291);
#240=AXIS2_PLACEMENT_3D('',#367,#292,#293);
#241=AXIS2_PLACEMENT_3D('',#369,#294,#295);
#242=AXIS2_PLACEMENT_3D('',#371,#296,#297);
#243=AXIS2_PLACEMENT_3D('',#372,#298,#299);
#244=AXIS2_PLACEMENT_3D('',#373,#300,#301);
#245=AXIS2_PLACEMENT_3D('',#374,#302,#303);
#246=AXIS2_PLACEMENT_3D('',#376,#304,#305);
#247=AXIS2_PLACEMENT_3D('',#378,#306,#307);
#248=AXIS2_PLACEMENT_3D('',#379,#308,#309);
#249=AXIS2_PLACEMENT_3D('',#380,#310,#311);
#250=AXIS2_PLACEMENT_3D('',#381,#312,#313);
#251=AXIS2_PLACEMENT_3D('',#383,#314,#315);
#252=AXIS2_PLACEMENT_3D('',#384,#316,#317);
#253=AXIS2_PLACEMENT_3D('',#386,#318,#319);
#254=AXIS2_PLACEMENT_3D('',#387,#320,#321);
#255=AXIS2_PLACEMENT_3D('',#388,#322,#323);
#256=AXIS2_PLACEMENT_3D('',#390,#324,#325);
#257=AXIS2_PLACEMENT_3D('',#391,#326,#327);
#258=AXIS2_PLACEMENT_3D('',#393,#328,#329);
#259=AXIS2_PLACEMENT_3D('',#394,#330,#331);
#260=AXIS2_PLACEMENT_3D('',#395,#332,#333);
#261=AXIS2_PLACEMENT_3D('',#397,#334,#335);
#262=AXIS2_PLACEMENT_3D('',#398,#336,#337);
#263=AXIS2_PLACEMENT_3D('',#400,#338,#339);
#264=AXIS2_PLACEMENT_3D('',#401,#340,#341);
#265=AXIS2_PLACEMENT_3D('',#402,#342,#343);
#266=AXIS2_PLACEMENT_3D('',#404,#344,#345);
#267=AXIS2_PLACEMENT_3D('',#405,#346,#347);
#268=AXIS2_PLACEMENT_3D('',#407,#348,#349);
#269=AXIS2_PLACEMENT_3D('',#408,#350,#351);
#270=DIRECTION('axis',(0.,0.,1.));
#271=DIRECTION('refdir',(1.,0.,0.));
#272=DIRECTION('center_axis',(-1.,0.,0.));
#273=DIRECTION('ref_axis',(0.,-1.,0.));
#274=DIRECTION('center_axis',(-1.,0.,0.));
#275=DIRECTION('ref_axis',(0.,-1.,0.));
#276=DIRECTION('center_axis',(-1.,0.,0.));
#277=DIRECTION('ref_axis',(0.,-1.,0.));
#278=DIRECTION('center_axis',(1.,0.,0.));
#279=DIRECTION('ref_axis',(0.,0.,-1.));
#280=DIRECTION('center_axis',(1.,0.,0.));
#281=DIRECTION('ref_axis',(0.,0.,-1.));
#282=DIRECTION('center_axis',(-1.,0.,0.));
#283=DIRECTION('ref_axis',(0.,-1.,0.));
#284=DIRECTION('center_axis',(-1.,0.,0.));
#285=DIRECTION('ref_axis',(0.,-1.,0.));
#286=DIRECTION('center_axis',(-1.,0.,0.));
#287=DIRECTION('ref_axis',(0.,-1.,0.));
#288=DIRECTION('center_axis',(1.,0.,0.));
#289=DIRECTION('ref_axis',(0.,0.,-1.));
#290=DIRECTION('center_axis',(1.,0.,0.));
#291=DIRECTION('ref_axis',(0.,0.,-1.));
#292=DIRECTION('center_axis',(-1.,0.,0.));
#293=DIRECTION('ref_axis',(0.,-1.,0.));
#294=DIRECTION('center_axis',(-1.,0.,0.));
#295=DIRECTION('ref_axis',(0.,-1.,0.));
#296=DIRECTION('center_axis',(-1.,0.,0.));
#297=DIRECTION('ref_axis',(0.,-1.,0.));
#298=DIRECTION('center_axis',(1.,0.,0.));
#299=DIRECTION('ref_axis',(0.,0.,-1.));
#300=DIRECTION('center_axis',(1.,0.,0.));
#301=DIRECTION('ref_axis',(0.,0.,-1.));
#302=DIRECTION('center_axis',(-1.,0.,0.));
#303=DIRECTION('ref_axis',(0.,-1.,0.));
#304=DIRECTION('center_axis',(-1.,0.,0.));
#305=DIRECTION('ref_axis',(0.,-1.,0.));
#306=DIRECTION('center_axis',(-1.,0.,0.));
#307=DIRECTION('ref_axis',(0.,-1.,0.));
#308=DIRECTION('center_axis',(1.,0.,0.));
#309=DIRECTION('ref_axis',(0.,0.,-1.));
#310=DIRECTION('center_axis',(1.,0.,0.));
#311=DIRECTION('ref_axis',(0.,0.,-1.));
#312=DIRECTION('center_axis',(0.,0.,1.));
#313=DIRECTION('ref_axis',(1.,0.,0.));
#314=DIRECTION('center_axis',(0.,0.,-1.));
#315=DIRECTION('ref_axis',(-1.,0.,0.));
#316=DIRECTION('center_axis',(0.,0.,1.));
#317=DIRECTION('ref_axis',(-1.,0.,0.));
#318=DIRECTION('center_axis',(0.,0.,1.));
#319=DIRECTION('ref_axis',(-1.,0.,0.));
#320=DIRECTION('center_axis',(0.,0.,1.));
#321=DIRECTION('ref_axis',(1.,0.,0.));
#322=DIRECTION('center_axis',(0.,0.,1.));
#323=DIRECTION('ref_axis',(1.,0.,0.));
#324=DIRECTION('center_axis',(0.,0.,-1.));
#325=DIRECTION('ref_axis',(-1.,0.,0.));
#326=DIRECTION('center_axis',(0.,0.,1.));
#327=DIRECTION('ref_axis',(-1.,0.,0.));
#328=DIRECTION('center_axis',(0.,0.,1.));
#329=DIRECTION('ref_axis',(-1.,0.,0.));
#330=DIRECTION('center_axis',(0.,0.,1.));
#331=DIRECTION('ref_axis',(1.,0.,0.));
#332=DIRECTION('center_axis',(0.,0.,1.));
#333=DIRECTION('ref_axis',(1.,0.,0.));
#334=DIRECTION('center_axis',(0.,0.,-1.));
#335=DIRECTION('ref_axis',(-1.,0.,0.));
#336=DIRECTION('center_axis',(0.,0.,1.));
#337=DIRECTION('ref_axis',(-1.,0.,0.));
#338=DIRECTION('center_axis',(0.,0.,1.));
#339=DIRECTION('ref_axis',(-1.,0.,0.));
#340=DIRECTION('center_axis',(0.,0.,1.));
#341=DIRECTION('ref_axis',(1.,0.,0.));
#342=DIRECTION('center_axis',(0.,0.,1.));
#343=DIRECTION('ref_axis',(1.,0.,0.));
#344=DIRECTION('center_axis',(0.,0.,-1.));
#345=DIRECTION('ref_axis',(-1.,0.,0.));
#346=DIRECTION('center_axis',(0.,0.,1.));
#347=DIRECTION('ref_axis',(-1.,0.,0.));
#348=DIRECTION('center_axis',(0.,0.,1.));
#349=DIRECTION('ref_axis',(-1.,0.,0.));
#350=DIRECTION('center_axis',(0.,0.,1.));
#351=DIRECTION('ref_axis',(1.,0.,0.));
#352=CARTESIAN_POINT('',(0.,0.,0.));
#353=CARTESIAN_POINT('Origin',(0.,0.,90.));
#354=CARTESIAN_POINT('',(-100.,1.5,90.));
#355=CARTESIAN_POINT('Origin',(-100.,0.,90.));
#356=CARTESIAN_POINT('',(0.,1.5,90.));
#357=CARTESIAN_POINT('Origin',(0.,0.,90.));
#358=CARTESIAN_POINT('Origin',(-100.,-9.24069061438667E-017,90.));
#359=CARTESIAN_POINT('Origin',(0.,-9.24069061438667E-017,90.));
#360=CARTESIAN_POINT('Origin',(0.,0.,30.));
#361=CARTESIAN_POINT('',(-100.,1.5,30.));
#362=CARTESIAN_POINT('Origin',(-100.,0.,30.));
#363=CARTESIAN_POINT('',(0.,1.5,30.));
#364=CARTESIAN_POINT('Origin',(0.,0.,30.));
#365=CARTESIAN_POINT('Origin',(-100.,-9.24069061438667E-017,30.));
#366=CARTESIAN_POINT('Origin',(0.,-9.24069061438667E-017,30.));
#367=CARTESIAN_POINT('Origin',(0.,0.,0.));
#368=CARTESIAN_POINT('',(-100.,1.5,1.83697019872103E-016));
#369=CARTESIAN_POINT('Origin',(-100.,0.,0.));
#370=CARTESIAN_POINT('',(0.,1.5,1.83697019872103E-016));
#371=CARTESIAN_POINT('Origin',(0.,0.,0.));
#372=CARTESIAN_POINT('Origin',(-100.,-9.24069061438667E-017,-3.85494105772624E-017));
#373=CARTESIAN_POINT('Origin',(0.,-9.24069061438667E-017,-3.85494105772624E-017));
#374=CARTESIAN_POINT('Origin',(0.,0.,60.));
#375=CARTESIAN_POINT('',(-100.,1.5,60.));
#376=CARTESIAN_POINT('Origin',(-100.,0.,60.));
#377=CARTESIAN_POINT('',(0.,1.5,60.));
#378=CARTESIAN_POINT('Origin',(0.,0.,60.));
#379=CARTESIAN_POINT('Origin',(-100.,-9.24069061438667E-017,60.));
#380=CARTESIAN_POINT('Origin',(0.,-9.24069061438667E-017,60.));
#381=CARTESIAN_POINT('Origin',(-95.,3.01,-10.));
#382=CARTESIAN_POINT('',(-93.5,3.01,-10.));
#383=CARTESIAN_POINT('Origin',(-95.,3.01,-10.));
#384=CARTESIAN_POINT('Origin',(-95.,3.01,0.));
#385=CARTESIAN_POINT('',(-93.5,3.01,92.));
#386=CARTESIAN_POINT('Origin',(-95.,3.01,92.));
#387=CARTESIAN_POINT('Origin',(-95.,3.01,92.));
#388=CARTESIAN_POINT('Origin',(-35.,3.01,-10.));
#389=CARTESIAN_POINT('',(-33.5,3.01,-10.));
#390=CARTESIAN_POINT('Origin',(-35.,3.01,-10.));
#391=CARTESIAN_POINT('Origin',(-35.,3.01,0.));
#392=CARTESIAN_POINT('',(-33.5,3.01,92.));
#393=CARTESIAN_POINT('Origin',(-35.,3.01,92.));
#394=CARTESIAN_POINT('Origin',(-35.,3.01,92.));
#395=CARTESIAN_POINT('Origin',(-5.,3.01,-10.));
#396=CARTESIAN_POINT('',(-3.5,3.01,-10.));
#397=CARTESIAN_POINT('Origin',(-5.,3.01,-10.));
#398=CARTESIAN_POINT('Origin',(-5.,3.01,0.));
#399=CARTESIAN_POINT('',(-3.5,3.01,92.));
#400=CARTESIAN_POINT('Origin',(-5.,3.01,92.));
#401=CARTESIAN_POINT('Origin',(-5.,3.01,92.));
#402=CARTESIAN_POINT('Origin',(-65.,3.01,-10.));
#403=CARTESIAN_POINT('',(-63.5,3.01,-10.));
#404=CARTESIAN_POINT('Origin',(-65.,3.01,-10.));
#405=CARTESIAN_POINT('Origin',(-65.,3.01,0.));
#406=CARTESIAN_POINT('',(-63.5,3.01,92.));
#407=CARTESIAN_POINT('Origin',(-65.,3.01,92.));
#408=CARTESIAN_POINT('Origin',(-65.,3.01,92.));
#409=UNCERTAINTY_MEASURE_WITH_UNIT(LENGTH_MEASURE(0.01),#413,
'DISTANCE_ACCURACY_VALUE',
'Maximum model space distance between geometric entities at asserted c
onnectivities');
#410=UNCERTAINTY_MEASURE_WITH_UNIT(LENGTH_MEASURE(1.E-006),#413,
'DISTANCE_ACCURACY_VALUE',
'Maximum model space distance between geometric entities at asserted c
onnectivities');
#411=(
GEOMETRIC_REPRESENTATION_CONTEXT(3)
GLOBAL_UNCERTAINTY_ASSIGNED_CONTEXT((#409))
GLOBAL_UNIT_ASSIGNED_CONTEXT((#413,#416,#414))
REPRESENTATION_CONTEXT('','3D')
);
#412=(
GEOMETRIC_REPRESENTATION_CONTEXT(3)
GLOBAL_UNCERTAINTY_ASSIGNED_CONTEXT((#410))
GLOBAL_UNIT_ASSIGNED_CONTEXT((#413,#416,#414))
REPRESENTATION_CONTEXT('','3D')
);
#413=(
LENGTH_UNIT()
NAMED_UNIT(*)
SI_UNIT(.MILLI.,.METRE.)
);
#414=(
NAMED_UNIT(*)
SI_UNIT($,.STERADIAN.)
SOLID_ANGLE_UNIT()
);
#415=DIMENSIONAL_EXPONENTS(0.,0.,0.,0.,0.,0.,0.);
#416=(
CONVERSION_BASED_UNIT('degree',#418)
NAMED_UNIT(#415)
PLANE_ANGLE_UNIT()
);
#417=(
NAMED_UNIT(*)
PLANE_ANGLE_UNIT()
SI_UNIT($,.RADIAN.)
);
#418=PLANE_ANGLE_MEASURE_WITH_UNIT(PLANE_ANGLE_MEASURE(0.01745329252),#417);
#419=SHAPE_DEFINITION_REPRESENTATION(#420,#421);
#420=PRODUCT_DEFINITION_SHAPE('',$,#423);
#421=SHAPE_REPRESENTATION('',(#229),#411);
#422=PRODUCT_DEFINITION_CONTEXT('part definition',#427,'design');
#423=PRODUCT_DEFINITION('230822_729301_001','230822_729301_001',#424,#422);
#424=PRODUCT_DEFINITION_FORMATION('',$,#429);
#425=PRODUCT_RELATED_PRODUCT_CATEGORY('230822_729301_001',
'230822_729301_001',(#429));
#426=APPLICATION_PROTOCOL_DEFINITION('international standard',
'automotive_design',2009,#427);
#427=APPLICATION_CONTEXT(
'Core Data for Automotive Mechanical Design Process');
#428=PRODUCT_CONTEXT('part definition',#427,'mechanical');
#429=PRODUCT('230822_729301_001','230822_729301_001',$,(#428));
#430=PRESENTATION_STYLE_ASSIGNMENT((#431));
#431=SURFACE_STYLE_USAGE(.BOTH.,#432);
#432=SURFACE_SIDE_STYLE($,(#433));
#433=SURFACE_STYLE_FILL_AREA(#434);
#434=FILL_AREA_STYLE($,(#435));
#435=FILL_AREA_STYLE_COLOUR($,#436);
#436=COLOUR_RGB('',0.87843137254902,0.874509803921569,0.858823529411765);
ENDSEC;
END-ISO-10303-21;
