ISO-10303-21;
HEADER;
/****************************************************************
 * Generated by software with PDE/Lib inside                    *
 * PDElib Version v51a, created Mon 03/22/2010                  *
 * International Technegroup Inc. (www.iti-oh.com)              *
 ****************************************************************/
FILE_DESCRIPTION((''),'2;1');
FILE_NAME('D:\\P\X2\0159\X0\evod katalogu\\Pro WEB\\STEP\\P\S\asov\S\i dopravn\S\mky\\Kompleta\X2\010D\X0\n\S\m dopl\X2\0148\X0\ky\\730013.stp','2010-09-12T19:35:22',('Jarda'),(''),'Autodesk Inventor 2010','Autodesk Inventor 2010','');
FILE_SCHEMA(('AUTOMOTIVE_DESIGN { 1 0 10303 214 1 1 1 1 }'));
ENDSEC;
DATA;
#5=APPLICATION_CONTEXT('automotive design');
#6=APPLICATION_PROTOCOL_DEFINITION('International Standard','automotive_design',2001,#5);
#7=PRODUCT_CONTEXT('',#5,'mechanical');
#8=PRODUCT('730013-150','730013-150',$,(#7));
#9=PRODUCT_RELATED_PRODUCT_CATEGORY('part',$,(#8));
#10=PRODUCT_DEFINITION_FORMATION('',$,#8);
#11=PRODUCT_DEFINITION_CONTEXT('part definition',#5,'design');
#12=PRODUCT_DEFINITION('',$,#10,#11);
#18=(NAMED_UNIT(*)PLANE_ANGLE_UNIT()SI_UNIT($,.RADIAN.));
#19=DIMENSIONAL_EXPONENTS(0.0,0.0,0.0,0.0,0.0,0.0,0.0);
#20=PLANE_ANGLE_MEASURE_WITH_UNIT(PLANE_ANGLE_MEASURE(0.017453292500000),#18);
#24=(CONVERSION_BASED_UNIT('DEGREE',#20)NAMED_UNIT(#19)PLANE_ANGLE_UNIT());
#28=(NAMED_UNIT(*)SI_UNIT($,.STERADIAN.)SOLID_ANGLE_UNIT());
#32=(LENGTH_UNIT()NAMED_UNIT(*)SI_UNIT(.MILLI.,.METRE.));
#34=UNCERTAINTY_MEASURE_WITH_UNIT(LENGTH_MEASURE(0.010000000000000),#32,'DISTANCE_ACCURACY_VALUE','');
#36=(GEOMETRIC_REPRESENTATION_CONTEXT(3)GLOBAL_UNCERTAINTY_ASSIGNED_CONTEXT((#34))GLOBAL_UNIT_ASSIGNED_CONTEXT((#24,#28,#32))REPRESENTATION_CONTEXT('None','None'));
#37=AXIS2_PLACEMENT_3D('',#38,#39,#40);
#38=CARTESIAN_POINT('',(0.0,0.0,0.0));
#39=DIRECTION('',(0.0,0.0,1.0));
#40=DIRECTION('',(1.0,0.0,0.0));
#41=SHAPE_REPRESENTATION('',(#37),#36);
#42=PRODUCT_DEFINITION_SHAPE('','',#12);
#43=SHAPE_DEFINITION_REPRESENTATION(#42,#41);
#49=(NAMED_UNIT(*)PLANE_ANGLE_UNIT()SI_UNIT($,.RADIAN.));
#50=DIMENSIONAL_EXPONENTS(0.0,0.0,0.0,0.0,0.0,0.0,0.0);
#51=PLANE_ANGLE_MEASURE_WITH_UNIT(PLANE_ANGLE_MEASURE(0.017453292500000),#49);
#55=(CONVERSION_BASED_UNIT('DEGREE',#51)NAMED_UNIT(#50)PLANE_ANGLE_UNIT());
#59=(NAMED_UNIT(*)SI_UNIT($,.STERADIAN.)SOLID_ANGLE_UNIT());
#63=(LENGTH_UNIT()NAMED_UNIT(*)SI_UNIT(.MILLI.,.METRE.));
#65=UNCERTAINTY_MEASURE_WITH_UNIT(LENGTH_MEASURE(0.000001000000000),#63,'DISTANCE_ACCURACY_VALUE','');
#67=(GEOMETRIC_REPRESENTATION_CONTEXT(3)GLOBAL_UNCERTAINTY_ASSIGNED_CONTEXT((#65))GLOBAL_UNIT_ASSIGNED_CONTEXT((#55,#59,#63))REPRESENTATION_CONTEXT('','3D'));
#68=CARTESIAN_POINT('',(-3.000000000000000,-3.000000000000000,0.0));
#69=DIRECTION('',(-1.0,0.0,0.0));
#70=DIRECTION('',(0.0,0.0,1.0));
#71=AXIS2_PLACEMENT_3D('',#68,#69,#70);
#72=PLANE('',#71);
#73=CARTESIAN_POINT('',(-3.000000000000000,3.000000000000000,150.0));
#74=VERTEX_POINT('',#73);
#75=CARTESIAN_POINT('',(-3.000000000000000,-3.000000000000000,150.0));
#76=VERTEX_POINT('',#75);
#77=CARTESIAN_POINT('',(-3.000000000000000,3.000000000000001,150.0));
#78=DIRECTION('',(0.0,-1.0,0.0));
#79=VECTOR('',#78,6.000000000000002);
#80=LINE('',#77,#79);
#81=EDGE_CURVE('',#74,#76,#80,.T.);
#82=ORIENTED_EDGE('',*,*,#81,.T.);
#83=CARTESIAN_POINT('',(-3.000000000000000,-3.000000000000000,0.0));
#84=VERTEX_POINT('',#83);
#85=CARTESIAN_POINT('',(-3.000000000000000,-3.000000000000000,0.0));
#86=DIRECTION('',(0.0,0.0,1.0));
#87=VECTOR('',#86,150.0);
#88=LINE('',#85,#87);
#89=EDGE_CURVE('',#84,#76,#88,.T.);
#90=ORIENTED_EDGE('',*,*,#89,.F.);
#91=CARTESIAN_POINT('',(-3.000000000000000,3.000000000000000,0.0));
#92=VERTEX_POINT('',#91);
#93=CARTESIAN_POINT('',(-3.000000000000000,3.000000000000001,0.0));
#94=DIRECTION('',(0.0,-1.0,0.0));
#95=VECTOR('',#94,6.000000000000002);
#96=LINE('',#93,#95);
#97=EDGE_CURVE('',#92,#84,#96,.T.);
#98=ORIENTED_EDGE('',*,*,#97,.F.);
#99=CARTESIAN_POINT('',(-3.000000000000000,3.000000000000000,0.0));
#100=DIRECTION('',(0.0,0.0,1.0));
#101=VECTOR('',#100,150.0);
#102=LINE('',#99,#101);
#103=EDGE_CURVE('',#92,#74,#102,.T.);
#104=ORIENTED_EDGE('',*,*,#103,.T.);
#105=EDGE_LOOP('',(#82,#90,#98,#104));
#106=FACE_OUTER_BOUND('',#105,.T.);
#107=ADVANCED_FACE('',(#106),#72,.F.);
#108=CARTESIAN_POINT('',(3.000000000000000,-3.000000000000000,0.0));
#109=DIRECTION('',(0.0,-1.0,0.0));
#110=DIRECTION('',(0.0,0.0,-1.0));
#111=AXIS2_PLACEMENT_3D('',#108,#109,#110);
#112=PLANE('',#111);
#113=CARTESIAN_POINT('',(3.000000000000000,-3.000000000000000,150.0));
#114=VERTEX_POINT('',#113);
#115=CARTESIAN_POINT('',(-3.000000000000001,-3.000000000000000,150.0));
#116=DIRECTION('',(1.0,0.0,0.0));
#117=VECTOR('',#116,6.000000000000002);
#118=LINE('',#115,#117);
#119=EDGE_CURVE('',#76,#114,#118,.T.);
#120=ORIENTED_EDGE('',*,*,#119,.T.);
#121=CARTESIAN_POINT('',(3.000000000000000,-3.000000000000000,0.0));
#122=VERTEX_POINT('',#121);
#123=CARTESIAN_POINT('',(3.000000000000000,-3.000000000000000,0.0));
#124=DIRECTION('',(0.0,0.0,1.0));
#125=VECTOR('',#124,150.0);
#126=LINE('',#123,#125);
#127=EDGE_CURVE('',#122,#114,#126,.T.);
#128=ORIENTED_EDGE('',*,*,#127,.F.);
#129=CARTESIAN_POINT('',(-3.000000000000001,-3.000000000000000,0.0));
#130=DIRECTION('',(1.0,0.0,0.0));
#131=VECTOR('',#130,6.000000000000002);
#132=LINE('',#129,#131);
#133=EDGE_CURVE('',#84,#122,#132,.T.);
#134=ORIENTED_EDGE('',*,*,#133,.F.);
#135=ORIENTED_EDGE('',*,*,#89,.T.);
#136=EDGE_LOOP('',(#120,#128,#134,#135));
#137=FACE_OUTER_BOUND('',#136,.T.);
#138=ADVANCED_FACE('',(#137),#112,.F.);
#139=CARTESIAN_POINT('',(-5.0,5.0,0.0));
#140=DIRECTION('',(0.0,1.0,0.0));
#141=DIRECTION('',(0.0,0.0,1.0));
#142=AXIS2_PLACEMENT_3D('',#139,#140,#141);
#143=PLANE('',#142);
#144=CARTESIAN_POINT('',(-5.0,5.0,150.0));
#145=VERTEX_POINT('',#144);
#146=CARTESIAN_POINT('',(5.0,5.0,150.0));
#147=VERTEX_POINT('',#146);
#148=CARTESIAN_POINT('',(-5.0,5.0,150.0));
#149=DIRECTION('',(1.0,0.0,0.0));
#150=VECTOR('',#149,10.0);
#151=LINE('',#148,#150);
#152=EDGE_CURVE('',#145,#147,#151,.T.);
#153=ORIENTED_EDGE('',*,*,#152,.T.);
#154=CARTESIAN_POINT('',(5.0,5.0,0.0));
#155=VERTEX_POINT('',#154);
#156=CARTESIAN_POINT('',(5.0,5.0,0.0));
#157=DIRECTION('',(0.0,0.0,1.0));
#158=VECTOR('',#157,150.0);
#159=LINE('',#156,#158);
#160=EDGE_CURVE('',#155,#147,#159,.T.);
#161=ORIENTED_EDGE('',*,*,#160,.F.);
#162=CARTESIAN_POINT('',(-5.0,5.0,0.0));
#163=VERTEX_POINT('',#162);
#164=CARTESIAN_POINT('',(-5.0,5.0,0.0));
#165=DIRECTION('',(1.0,0.0,0.0));
#166=VECTOR('',#165,10.0);
#167=LINE('',#164,#166);
#168=EDGE_CURVE('',#163,#155,#167,.T.);
#169=ORIENTED_EDGE('',*,*,#168,.F.);
#170=CARTESIAN_POINT('',(-5.0,5.0,0.0));
#171=DIRECTION('',(0.0,0.0,1.0));
#172=VECTOR('',#171,150.0);
#173=LINE('',#170,#172);
#174=EDGE_CURVE('',#163,#145,#173,.T.);
#175=ORIENTED_EDGE('',*,*,#174,.T.);
#176=EDGE_LOOP('',(#153,#161,#169,#175));
#177=FACE_OUTER_BOUND('',#176,.T.);
#178=ADVANCED_FACE('',(#177),#143,.T.);
#179=CARTESIAN_POINT('',(5.0,5.0,0.0));
#180=DIRECTION('',(1.0,0.0,0.0));
#181=DIRECTION('',(0.0,0.0,-1.0));
#182=AXIS2_PLACEMENT_3D('',#179,#180,#181);
#183=PLANE('',#182);
#184=CARTESIAN_POINT('',(5.0,-5.0,150.0));
#185=VERTEX_POINT('',#184);
#186=CARTESIAN_POINT('',(5.0,5.0,150.0));
#187=DIRECTION('',(0.0,-1.0,0.0));
#188=VECTOR('',#187,10.0);
#189=LINE('',#186,#188);
#190=EDGE_CURVE('',#147,#185,#189,.T.);
#191=ORIENTED_EDGE('',*,*,#190,.T.);
#192=CARTESIAN_POINT('',(5.0,-5.0,0.0));
#193=VERTEX_POINT('',#192);
#194=CARTESIAN_POINT('',(5.0,-5.0,0.0));
#195=DIRECTION('',(0.0,0.0,1.0));
#196=VECTOR('',#195,150.0);
#197=LINE('',#194,#196);
#198=EDGE_CURVE('',#193,#185,#197,.T.);
#199=ORIENTED_EDGE('',*,*,#198,.F.);
#200=CARTESIAN_POINT('',(5.0,5.0,0.0));
#201=DIRECTION('',(0.0,-1.0,0.0));
#202=VECTOR('',#201,10.0);
#203=LINE('',#200,#202);
#204=EDGE_CURVE('',#155,#193,#203,.T.);
#205=ORIENTED_EDGE('',*,*,#204,.F.);
#206=ORIENTED_EDGE('',*,*,#160,.T.);
#207=EDGE_LOOP('',(#191,#199,#205,#206));
#208=FACE_OUTER_BOUND('',#207,.T.);
#209=ADVANCED_FACE('',(#208),#183,.T.);
#210=CARTESIAN_POINT('',(3.000000000000000,3.000000000000000,0.0));
#211=DIRECTION('',(1.0,0.0,0.0));
#212=DIRECTION('',(0.0,0.0,-1.0));
#213=AXIS2_PLACEMENT_3D('',#210,#211,#212);
#214=PLANE('',#213);
#215=CARTESIAN_POINT('',(3.000000000000000,3.000000000000000,150.0));
#216=VERTEX_POINT('',#215);
#217=CARTESIAN_POINT('',(3.000000000000000,-3.000000000000001,150.0));
#218=DIRECTION('',(0.0,1.0,0.0));
#219=VECTOR('',#218,6.000000000000002);
#220=LINE('',#217,#219);
#221=EDGE_CURVE('',#114,#216,#220,.T.);
#222=ORIENTED_EDGE('',*,*,#221,.T.);
#223=CARTESIAN_POINT('',(3.000000000000000,3.000000000000000,0.0));
#224=VERTEX_POINT('',#223);
#225=CARTESIAN_POINT('',(3.000000000000000,3.000000000000000,0.0));
#226=DIRECTION('',(0.0,0.0,1.0));
#227=VECTOR('',#226,150.0);
#228=LINE('',#225,#227);
#229=EDGE_CURVE('',#224,#216,#228,.T.);
#230=ORIENTED_EDGE('',*,*,#229,.F.);
#231=CARTESIAN_POINT('',(3.000000000000000,-3.000000000000001,0.0));
#232=DIRECTION('',(0.0,1.0,0.0));
#233=VECTOR('',#232,6.000000000000002);
#234=LINE('',#231,#233);
#235=EDGE_CURVE('',#122,#224,#234,.T.);
#236=ORIENTED_EDGE('',*,*,#235,.F.);
#237=ORIENTED_EDGE('',*,*,#127,.T.);
#238=EDGE_LOOP('',(#222,#230,#236,#237));
#239=FACE_OUTER_BOUND('',#238,.T.);
#240=ADVANCED_FACE('',(#239),#214,.F.);
#241=CARTESIAN_POINT('',(-3.000000000000000,3.000000000000000,0.0));
#242=DIRECTION('',(0.0,1.0,0.0));
#243=DIRECTION('',(0.0,0.0,1.0));
#244=AXIS2_PLACEMENT_3D('',#241,#242,#243);
#245=PLANE('',#244);
#246=CARTESIAN_POINT('',(3.000000000000001,3.000000000000000,150.0));
#247=DIRECTION('',(-1.0,0.0,0.0));
#248=VECTOR('',#247,6.000000000000002);
#249=LINE('',#246,#248);
#250=EDGE_CURVE('',#216,#74,#249,.T.);
#251=ORIENTED_EDGE('',*,*,#250,.T.);
#252=ORIENTED_EDGE('',*,*,#103,.F.);
#253=CARTESIAN_POINT('',(3.000000000000001,3.000000000000000,0.0));
#254=DIRECTION('',(-1.0,0.0,0.0));
#255=VECTOR('',#254,6.000000000000002);
#256=LINE('',#253,#255);
#257=EDGE_CURVE('',#224,#92,#256,.T.);
#258=ORIENTED_EDGE('',*,*,#257,.F.);
#259=ORIENTED_EDGE('',*,*,#229,.T.);
#260=EDGE_LOOP('',(#251,#252,#258,#259));
#261=FACE_OUTER_BOUND('',#260,.T.);
#262=ADVANCED_FACE('',(#261),#245,.F.);
#263=CARTESIAN_POINT('',(5.0,-5.0,0.0));
#264=DIRECTION('',(0.0,-1.0,0.0));
#265=DIRECTION('',(0.0,0.0,-1.0));
#266=AXIS2_PLACEMENT_3D('',#263,#264,#265);
#267=PLANE('',#266);
#268=CARTESIAN_POINT('',(-5.0,-5.0,150.0));
#269=VERTEX_POINT('',#268);
#270=CARTESIAN_POINT('',(5.0,-5.0,150.0));
#271=DIRECTION('',(-1.0,0.0,0.0));
#272=VECTOR('',#271,10.0);
#273=LINE('',#270,#272);
#274=EDGE_CURVE('',#185,#269,#273,.T.);
#275=ORIENTED_EDGE('',*,*,#274,.T.);
#276=CARTESIAN_POINT('',(-5.0,-5.0,0.0));
#277=VERTEX_POINT('',#276);
#278=CARTESIAN_POINT('',(-5.0,-5.0,0.0));
#279=DIRECTION('',(0.0,0.0,1.0));
#280=VECTOR('',#279,150.0);
#281=LINE('',#278,#280);
#282=EDGE_CURVE('',#277,#269,#281,.T.);
#283=ORIENTED_EDGE('',*,*,#282,.F.);
#284=CARTESIAN_POINT('',(5.0,-5.0,0.0));
#285=DIRECTION('',(-1.0,0.0,0.0));
#286=VECTOR('',#285,10.0);
#287=LINE('',#284,#286);
#288=EDGE_CURVE('',#193,#277,#287,.T.);
#289=ORIENTED_EDGE('',*,*,#288,.F.);
#290=ORIENTED_EDGE('',*,*,#198,.T.);
#291=EDGE_LOOP('',(#275,#283,#289,#290));
#292=FACE_OUTER_BOUND('',#291,.T.);
#293=ADVANCED_FACE('',(#292),#267,.T.);
#294=CARTESIAN_POINT('',(-5.0,-5.0,0.0));
#295=DIRECTION('',(-1.0,0.0,0.0));
#296=DIRECTION('',(0.0,0.0,1.0));
#297=AXIS2_PLACEMENT_3D('',#294,#295,#296);
#298=PLANE('',#297);
#299=CARTESIAN_POINT('',(-5.0,-5.0,150.0));
#300=DIRECTION('',(0.0,1.0,0.0));
#301=VECTOR('',#300,10.0);
#302=LINE('',#299,#301);
#303=EDGE_CURVE('',#269,#145,#302,.T.);
#304=ORIENTED_EDGE('',*,*,#303,.T.);
#305=ORIENTED_EDGE('',*,*,#174,.F.);
#306=CARTESIAN_POINT('',(-5.0,-5.0,0.0));
#307=DIRECTION('',(0.0,1.0,0.0));
#308=VECTOR('',#307,10.0);
#309=LINE('',#306,#308);
#310=EDGE_CURVE('',#277,#163,#309,.T.);
#311=ORIENTED_EDGE('',*,*,#310,.F.);
#312=ORIENTED_EDGE('',*,*,#282,.T.);
#313=EDGE_LOOP('',(#304,#305,#311,#312));
#314=FACE_OUTER_BOUND('',#313,.T.);
#315=ADVANCED_FACE('',(#314),#298,.T.);
#316=CARTESIAN_POINT('',(0.0,0.0,150.0));
#317=DIRECTION('',(0.0,0.0,1.0));
#318=DIRECTION('',(1.0,0.0,0.0));
#319=AXIS2_PLACEMENT_3D('',#316,#317,#318);
#320=PLANE('',#319);
#321=ORIENTED_EDGE('',*,*,#274,.F.);
#322=ORIENTED_EDGE('',*,*,#190,.F.);
#323=ORIENTED_EDGE('',*,*,#152,.F.);
#324=ORIENTED_EDGE('',*,*,#303,.F.);
#325=EDGE_LOOP('',(#321,#322,#323,#324));
#326=FACE_OUTER_BOUND('',#325,.T.);
#327=ORIENTED_EDGE('',*,*,#221,.F.);
#328=ORIENTED_EDGE('',*,*,#119,.F.);
#329=ORIENTED_EDGE('',*,*,#81,.F.);
#330=ORIENTED_EDGE('',*,*,#250,.F.);
#331=EDGE_LOOP('',(#327,#328,#329,#330));
#332=FACE_BOUND('',#331,.T.);
#333=ADVANCED_FACE('',(#326,#332),#320,.T.);
#334=CARTESIAN_POINT('',(0.0,0.0,0.0));
#335=DIRECTION('',(0.0,0.0,1.0));
#336=DIRECTION('',(1.0,0.0,0.0));
#337=AXIS2_PLACEMENT_3D('',#334,#335,#336);
#338=PLANE('',#337);
#339=ORIENTED_EDGE('',*,*,#288,.T.);
#340=ORIENTED_EDGE('',*,*,#310,.T.);
#341=ORIENTED_EDGE('',*,*,#168,.T.);
#342=ORIENTED_EDGE('',*,*,#204,.T.);
#343=EDGE_LOOP('',(#339,#340,#341,#342));
#344=FACE_OUTER_BOUND('',#343,.T.);
#345=ORIENTED_EDGE('',*,*,#235,.T.);
#346=ORIENTED_EDGE('',*,*,#257,.T.);
#347=ORIENTED_EDGE('',*,*,#97,.T.);
#348=ORIENTED_EDGE('',*,*,#133,.T.);
#349=EDGE_LOOP('',(#345,#346,#347,#348));
#350=FACE_BOUND('',#349,.T.);
#351=ADVANCED_FACE('',(#344,#350),#338,.F.);
#352=CLOSED_SHELL('',(#107,#138,#178,#209,#240,#262,#293,#315,#333,#351));
#353=MANIFOLD_SOLID_BREP('T\X2\011B\X0\leso1',#352);
#354=COLOUR_RGB('Kov-AL-6061 (matn\X2\FFFD\X0\)',0.847059011459351,0.839215993881226,0.839215993881226);
#355=FILL_AREA_STYLE_COLOUR('Kov-AL-6061 (matn\X2\FFFD\X0\)',#354);
#356=FILL_AREA_STYLE('Kov-AL-6061 (matn\X2\FFFD\X0\)',(#355));
#357=SURFACE_STYLE_FILL_AREA(#356);
#358=SURFACE_SIDE_STYLE('Kov-AL-6061 (matn\X2\FFFD\X0\)',(#357));
#359=SURFACE_STYLE_USAGE(.BOTH.,#358);
#360=PRESENTATION_STYLE_ASSIGNMENT((#359));
#361=STYLED_ITEM('',(#360),#353);
#362=MECHANICAL_DESIGN_GEOMETRIC_PRESENTATION_REPRESENTATION('',(#361),#36);
#363=ADVANCED_BREP_SHAPE_REPRESENTATION('ABSR',(#353),#36);
#364=SHAPE_REPRESENTATION_RELATIONSHIP('SRR','None',#363,#41);
ENDSEC;
END-ISO-10303-21;
