ISO-10303-21;
HEADER;
/****************************************************************
 * Generated by software with PDE/Lib inside                    *
 * PDElib Version v51a, created Mon 03/22/2010                  *
 * International Technegroup Inc. (www.iti-oh.com)              *
 ****************************************************************/
FILE_DESCRIPTION((''),'2;1');
FILE_NAME('D:\\P\X2\0159\X0\evod katalogu\\P\X2\0159\X0\evod do STEP\\Line\S\arn\S\m veden\S\m s kluzn\S\}mi pouzdry\\850003\\850003.ipt.stp','2010-09-05T11:46:28',(''),(''),'Autodesk Inventor 2010','Autodesk Inventor 2010','');
FILE_SCHEMA(('AUTOMOTIVE_DESIGN { 1 0 10303 214 1 1 1 1 }'));
ENDSEC;
DATA;
#5=APPLICATION_CONTEXT('automotive design');
#6=APPLICATION_PROTOCOL_DEFINITION('International Standard','automotive_design',2001,#5);
#7=PRODUCT_CONTEXT('',#5,'mechanical');
#8=PRODUCT('850003','850003',$,(#7));
#9=PRODUCT_RELATED_PRODUCT_CATEGORY('part',$,(#8));
#10=PRODUCT_DEFINITION_FORMATION('',$,#8);
#11=PRODUCT_DEFINITION_CONTEXT('part definition',#5,'design');
#12=PRODUCT_DEFINITION('',$,#10,#11);
#18=(NAMED_UNIT(*)PLANE_ANGLE_UNIT()SI_UNIT($,.RADIAN.));
#19=DIMENSIONAL_EXPONENTS(0.0,0.0,0.0,0.0,0.0,0.0,0.0);
#20=PLANE_ANGLE_MEASURE_WITH_UNIT(PLANE_ANGLE_MEASURE(0.017453292500000),#18);
#24=(CONVERSION_BASED_UNIT('DEGREE',#20)NAMED_UNIT(#19)PLANE_ANGLE_UNIT());
#28=(NAMED_UNIT(*)SI_UNIT($,.STERADIAN.)SOLID_ANGLE_UNIT());
#32=(LENGTH_UNIT()NAMED_UNIT(*)SI_UNIT(.MILLI.,.METRE.));
#34=UNCERTAINTY_MEASURE_WITH_UNIT(LENGTH_MEASURE(0.010000000000000),#32,'DISTANCE_ACCURACY_VALUE','');
#36=(GEOMETRIC_REPRESENTATION_CONTEXT(3)GLOBAL_UNCERTAINTY_ASSIGNED_CONTEXT((#34))GLOBAL_UNIT_ASSIGNED_CONTEXT((#24,#28,#32))REPRESENTATION_CONTEXT('None','None'));
#37=AXIS2_PLACEMENT_3D('',#38,#39,#40);
#38=CARTESIAN_POINT('',(0.0,0.0,0.0));
#39=DIRECTION('',(0.0,0.0,1.0));
#40=DIRECTION('',(1.0,0.0,0.0));
#41=SHAPE_REPRESENTATION('',(#37),#36);
#42=PRODUCT_DEFINITION_SHAPE('','',#12);
#43=SHAPE_DEFINITION_REPRESENTATION(#42,#41);
#49=(NAMED_UNIT(*)PLANE_ANGLE_UNIT()SI_UNIT($,.RADIAN.));
#50=DIMENSIONAL_EXPONENTS(0.0,0.0,0.0,0.0,0.0,0.0,0.0);
#51=PLANE_ANGLE_MEASURE_WITH_UNIT(PLANE_ANGLE_MEASURE(0.017453292500000),#49);
#55=(CONVERSION_BASED_UNIT('DEGREE',#51)NAMED_UNIT(#50)PLANE_ANGLE_UNIT());
#59=(NAMED_UNIT(*)SI_UNIT($,.STERADIAN.)SOLID_ANGLE_UNIT());
#63=(LENGTH_UNIT()NAMED_UNIT(*)SI_UNIT(.MILLI.,.METRE.));
#65=UNCERTAINTY_MEASURE_WITH_UNIT(LENGTH_MEASURE(0.000001000000000),#63,'DISTANCE_ACCURACY_VALUE','');
#67=(GEOMETRIC_REPRESENTATION_CONTEXT(3)GLOBAL_UNCERTAINTY_ASSIGNED_CONTEXT((#65))GLOBAL_UNIT_ASSIGNED_CONTEXT((#55,#59,#63))REPRESENTATION_CONTEXT('','3D'));
#68=CARTESIAN_POINT('',(0.0,0.0,0.500000000000000));
#69=DIRECTION('',(0.0,0.0,-1.0));
#70=DIRECTION('',(-1.0,0.0,0.0));
#71=AXIS2_PLACEMENT_3D('',#68,#69,#70);
#72=CONICAL_SURFACE('',#71,10.500000000000000,45.000000000000028);
#73=CARTESIAN_POINT('',(10.0,1.224606E-015,1.0));
#74=VERTEX_POINT('',#73);
#75=CARTESIAN_POINT('',(0.0,0.0,1.0));
#76=DIRECTION('',(0.0,0.0,1.0));
#77=DIRECTION('',(-1.0,0.0,0.0));
#78=AXIS2_PLACEMENT_3D('',#75,#76,#77);
#79=CIRCLE('',#78,10.0);
#80=EDGE_CURVE('',#74,#74,#79,.T.);
#81=ORIENTED_EDGE('',*,*,#80,.T.);
#82=EDGE_LOOP('',(#81));
#83=FACE_OUTER_BOUND('',#82,.T.);
#84=CARTESIAN_POINT('',(11.0,-1.347067E-015,0.0));
#85=VERTEX_POINT('',#84);
#86=CARTESIAN_POINT('',(0.0,0.0,0.0));
#87=DIRECTION('',(0.0,0.0,-1.0));
#88=DIRECTION('',(-1.0,0.0,0.0));
#89=AXIS2_PLACEMENT_3D('',#86,#87,#88);
#90=CIRCLE('',#89,11.0);
#91=EDGE_CURVE('',#85,#85,#90,.T.);
#92=ORIENTED_EDGE('',*,*,#91,.T.);
#93=EDGE_LOOP('',(#92));
#94=FACE_BOUND('',#93,.T.);
#95=ADVANCED_FACE('',(#83,#94),#72,.F.);
#96=CARTESIAN_POINT('',(0.0,0.0,0.0));
#97=DIRECTION('',(0.0,0.0,-1.0));
#98=DIRECTION('',(-1.0,0.0,0.0));
#99=AXIS2_PLACEMENT_3D('',#96,#97,#98);
#100=PLANE('',#99);
#101=CARTESIAN_POINT('',(15.0,1.836910E-015,0.0));
#102=VERTEX_POINT('',#101);
#103=CARTESIAN_POINT('',(0.0,0.0,0.0));
#104=DIRECTION('',(0.0,0.0,1.0));
#105=DIRECTION('',(-1.0,0.0,0.0));
#106=AXIS2_PLACEMENT_3D('',#103,#104,#105);
#107=CIRCLE('',#106,15.0);
#108=EDGE_CURVE('',#102,#102,#107,.T.);
#109=ORIENTED_EDGE('',*,*,#108,.F.);
#110=EDGE_LOOP('',(#109));
#111=FACE_OUTER_BOUND('',#110,.T.);
#112=ORIENTED_EDGE('',*,*,#91,.F.);
#113=EDGE_LOOP('',(#112));
#114=FACE_BOUND('',#113,.T.);
#115=ADVANCED_FACE('',(#111,#114),#100,.T.);
#116=CARTESIAN_POINT('',(0.0,0.0,0.0));
#117=DIRECTION('',(0.0,0.0,1.0));
#118=DIRECTION('',(-1.0,0.0,0.0));
#119=AXIS2_PLACEMENT_3D('',#116,#117,#118);
#120=CYLINDRICAL_SURFACE('',#119,10.0);
#121=CARTESIAN_POINT('',(10.0,-1.224606E-015,44.0));
#122=VERTEX_POINT('',#121);
#123=CARTESIAN_POINT('',(0.0,0.0,44.0));
#124=DIRECTION('',(0.0,0.0,-1.0));
#125=DIRECTION('',(-1.0,0.0,0.0));
#126=AXIS2_PLACEMENT_3D('',#123,#124,#125);
#127=CIRCLE('',#126,10.0);
#128=EDGE_CURVE('',#122,#122,#127,.T.);
#129=ORIENTED_EDGE('',*,*,#128,.F.);
#130=EDGE_LOOP('',(#129));
#131=FACE_OUTER_BOUND('',#130,.T.);
#132=CARTESIAN_POINT('',(2.500000000000000,-9.682458365518542,18.0));
#133=VERTEX_POINT('',#132);
#134=CARTESIAN_POINT('',(2.500000000000000,-9.682458365518542,26.999999999999993));
#135=VERTEX_POINT('',#134);
#136=CARTESIAN_POINT('',(2.500000000000000,-9.682458365518542,18.0));
#137=CARTESIAN_POINT('',(3.108357490506675,-9.525381136900350,18.0));
#138=CARTESIAN_POINT('',(3.733612768593899,-9.297633063560314,18.129371674481625));
#139=CARTESIAN_POINT('',(4.855542234726328,-8.764105953736451,18.617267412402928));
#140=CARTESIAN_POINT('',(5.353408948801692,-8.459892051421141,18.974758215267769));
#141=CARTESIAN_POINT('',(6.109489125775520,-7.929221625271562,19.761660148131604));
#142=CARTESIAN_POINT('',(6.435014412880876,-7.660262042803611,20.240725524270580));
#143=CARTESIAN_POINT('',(6.880289804981360,-7.262963935045609,21.316061475567800));
#144=CARTESIAN_POINT('',(6.999999999999998,-7.141428428542852,21.914849814565653));
#145=CARTESIAN_POINT('',(6.999999999999998,-7.141428428542852,22.500000000000000));
#146=CARTESIAN_POINT('',(6.999999999999998,-7.141428428542852,23.085150185434347));
#147=CARTESIAN_POINT('',(6.880289804981360,-7.262963935045610,23.683938524432200));
#148=CARTESIAN_POINT('',(6.435014412880876,-7.660262042803612,24.759274475729420));
#149=CARTESIAN_POINT('',(6.109489125775518,-7.929221625271563,25.238339851868396));
#150=CARTESIAN_POINT('',(5.353408948801690,-8.459892051421143,26.025241784732231));
#151=CARTESIAN_POINT('',(4.855542234726325,-8.764105953736452,26.382732587597072));
#152=CARTESIAN_POINT('',(3.733612768593897,-9.297633063560316,26.870628325518378));
#153=CARTESIAN_POINT('',(3.108357490506675,-9.525381136900350,26.999999999999996));
#154=CARTESIAN_POINT('',(2.500000000000000,-9.682458365518542,26.999999999999996));
#155=B_SPLINE_CURVE_WITH_KNOTS('',3,(#136,#137,#138,#139,#140,#141,#142,#143,#144,#145,#146,#147,#148,#149,#150,#151,#152,#153,#154),.UNSPECIFIED.,.F.,.U.,(4,2,2,2,3,2,2,2,4),(-0.728075459944271,-0.539582785602439,-0.351090111260608,-0.175545055630304,0.0,0.175545055630304,0.351090111260608,0.539582785602439,0.728075459944271),.UNSPECIFIED.);
#156=EDGE_CURVE('',#133,#135,#155,.T.);
#157=ORIENTED_EDGE('',*,*,#156,.T.);
#158=CARTESIAN_POINT('',(-2.500000000000000,-9.682458365518542,26.999999999999993));
#159=VERTEX_POINT('',#158);
#160=CARTESIAN_POINT('',(0.0,0.0,26.999999999999993));
#161=DIRECTION('',(0.0,0.0,-1.0));
#162=DIRECTION('',(-1.0,0.0,0.0));
#163=AXIS2_PLACEMENT_3D('',#160,#161,#162);
#164=CIRCLE('',#163,10.0);
#165=EDGE_CURVE('',#135,#159,#164,.T.);
#166=ORIENTED_EDGE('',*,*,#165,.T.);
#167=CARTESIAN_POINT('',(-2.500000000000000,-9.682458365518542,18.0));
#168=VERTEX_POINT('',#167);
#169=CARTESIAN_POINT('',(-2.500000000000000,-9.682458365518542,26.999999999999993));
#170=CARTESIAN_POINT('',(-3.108357490506676,-9.525381136900350,26.999999999999993));
#171=CARTESIAN_POINT('',(-3.733612768593898,-9.297633063560314,26.870628325518375));
#172=CARTESIAN_POINT('',(-4.855542234726327,-8.764105953736451,26.382732587597069));
#173=CARTESIAN_POINT('',(-5.353408948801695,-8.459892051421141,26.025241784732227));
#174=CARTESIAN_POINT('',(-6.109489125775522,-7.929221625271561,25.238339851868389));
#175=CARTESIAN_POINT('',(-6.435014412880876,-7.660262042803612,24.759274475729413));
#176=CARTESIAN_POINT('',(-6.880289804981359,-7.262963935045611,23.683938524432200));
#177=CARTESIAN_POINT('',(-6.999999999999998,-7.141428428542852,23.085150185434344));
#178=CARTESIAN_POINT('',(-6.999999999999998,-7.141428428542852,21.914849814565649));
#179=CARTESIAN_POINT('',(-6.880289804981359,-7.262963935045611,21.316061475567789));
#180=CARTESIAN_POINT('',(-6.435014412880873,-7.660262042803613,20.240725524270573));
#181=CARTESIAN_POINT('',(-6.109489125775518,-7.929221625271563,19.761660148131597));
#182=CARTESIAN_POINT('',(-5.353408948801690,-8.459892051421143,18.974758215267762));
#183=CARTESIAN_POINT('',(-4.855542234726327,-8.764105953736452,18.617267412402924));
#184=CARTESIAN_POINT('',(-3.733612768593898,-9.297633063560316,18.129371674481622));
#185=CARTESIAN_POINT('',(-3.108357490506672,-9.525381136900350,18.0));
#186=CARTESIAN_POINT('',(-2.499999999999997,-9.682458365518542,18.0));
#187=B_SPLINE_CURVE_WITH_KNOTS('',3,(#169,#170,#171,#172,#173,#174,#175,#176,#177,#178,#179,#180,#181,#182,#183,#184,#185,#186),.UNSPECIFIED.,.F.,.U.,(4,2,2,2,2,2,2,2,4),(0.682280114943373,0.870772789285205,1.059265463627036,1.234810519257340,1.410355574887644,1.585900630517948,1.761445686148253,1.949938360490084,2.138431034831915),.UNSPECIFIED.);
#188=EDGE_CURVE('',#159,#168,#187,.T.);
#189=ORIENTED_EDGE('',*,*,#188,.T.);
#190=CARTESIAN_POINT('',(0.0,0.0,18.0));
#191=DIRECTION('',(0.0,0.0,1.0));
#192=DIRECTION('',(-1.0,0.0,0.0));
#193=AXIS2_PLACEMENT_3D('',#190,#191,#192);
#194=CIRCLE('',#193,10.0);
#195=EDGE_CURVE('',#168,#133,#194,.T.);
#196=ORIENTED_EDGE('',*,*,#195,.T.);
#197=EDGE_LOOP('',(#157,#166,#189,#196));
#198=FACE_BOUND('',#197,.T.);
#199=ORIENTED_EDGE('',*,*,#80,.F.);
#200=EDGE_LOOP('',(#199));
#201=FACE_BOUND('',#200,.T.);
#202=ADVANCED_FACE('',(#131,#198,#201),#120,.F.);
#203=CARTESIAN_POINT('',(0.0,0.0,0.500000000000000));
#204=DIRECTION('',(0.0,0.0,1.0));
#205=DIRECTION('',(-1.0,0.0,0.0));
#206=AXIS2_PLACEMENT_3D('',#203,#204,#205);
#207=CONICAL_SURFACE('',#206,15.500000000000000,45.000000000000028);
#208=CARTESIAN_POINT('',(16.0,-1.959370E-015,1.0));
#209=VERTEX_POINT('',#208);
#210=CARTESIAN_POINT('',(0.0,0.0,1.0));
#211=DIRECTION('',(0.0,0.0,-1.0));
#212=DIRECTION('',(-1.0,0.0,0.0));
#213=AXIS2_PLACEMENT_3D('',#210,#211,#212);
#214=CIRCLE('',#213,16.0);
#215=EDGE_CURVE('',#209,#209,#214,.T.);
#216=ORIENTED_EDGE('',*,*,#215,.T.);
#217=EDGE_LOOP('',(#216));
#218=FACE_OUTER_BOUND('',#217,.T.);
#219=ORIENTED_EDGE('',*,*,#108,.T.);
#220=EDGE_LOOP('',(#219));
#221=FACE_BOUND('',#220,.T.);
#222=ADVANCED_FACE('',(#218,#221),#207,.T.);
#223=CARTESIAN_POINT('',(0.0,0.0,0.0));
#224=DIRECTION('',(0.0,0.0,1.0));
#225=DIRECTION('',(-1.0,0.0,0.0));
#226=AXIS2_PLACEMENT_3D('',#223,#224,#225);
#227=CYLINDRICAL_SURFACE('',#226,16.0);
#228=CARTESIAN_POINT('',(16.0,1.959370E-015,44.0));
#229=VERTEX_POINT('',#228);
#230=CARTESIAN_POINT('',(0.0,0.0,44.0));
#231=DIRECTION('',(0.0,0.0,1.0));
#232=DIRECTION('',(-1.0,0.0,0.0));
#233=AXIS2_PLACEMENT_3D('',#230,#231,#232);
#234=CIRCLE('',#233,16.0);
#235=EDGE_CURVE('',#229,#229,#234,.T.);
#236=ORIENTED_EDGE('',*,*,#235,.F.);
#237=EDGE_LOOP('',(#236));
#238=FACE_OUTER_BOUND('',#237,.T.);
#239=CARTESIAN_POINT('',(2.500000000000000,-15.803480629279109,26.999999999999993));
#240=VERTEX_POINT('',#239);
#241=CARTESIAN_POINT('',(2.500000000000000,-15.803480629279109,18.0));
#242=VERTEX_POINT('',#241);
#243=CARTESIAN_POINT('',(2.500000000000000,-15.803480629279109,26.999999999999996));
#244=CARTESIAN_POINT('',(3.079429853003676,-15.711818882953088,26.999999999999996));
#245=CARTESIAN_POINT('',(3.689500489771813,-15.579503108620225,26.881765441734121));
#246=CARTESIAN_POINT('',(4.802792657479539,-15.273064970895424,26.413045500877029));
#247=CARTESIAN_POINT('',(5.306558743922283,-15.100389354345364,26.062909023447070));
#248=CARTESIAN_POINT('',(6.090885208671628,-14.801089187555210,25.267412637001438));
#249=CARTESIAN_POINT('',(6.430444146559447,-14.653051081479800,24.770451544697632));
#250=CARTESIAN_POINT('',(6.885172222147755,-14.444961921498026,23.672007519474700));
#251=CARTESIAN_POINT('',(6.999999999999998,-14.387494569938163,23.069895451726509));
#252=CARTESIAN_POINT('',(6.999999999999998,-14.387494569938163,22.500000000000000));
#253=CARTESIAN_POINT('',(6.999999999999998,-14.387494569938163,21.930104548273491));
#254=CARTESIAN_POINT('',(6.885172222147756,-14.444961921498026,21.327992480525303));
#255=CARTESIAN_POINT('',(6.430444146559449,-14.653051081479800,20.229548455302371));
#256=CARTESIAN_POINT('',(6.090885208671628,-14.801089187555208,19.732587362998562));
#257=CARTESIAN_POINT('',(5.306558743922283,-15.100389354345360,18.937090976552934));
#258=CARTESIAN_POINT('',(4.802792657479539,-15.273064970895424,18.586954499122974));
#259=CARTESIAN_POINT('',(3.689500489771814,-15.579503108620225,18.118234558265883));
#260=CARTESIAN_POINT('',(3.079429853003676,-15.711818882953088,18.000000000000004));
#261=CARTESIAN_POINT('',(2.500000000000000,-15.803480629279109,18.000000000000004));
#262=B_SPLINE_CURVE_WITH_KNOTS('',3,(#243,#244,#245,#246,#247,#248,#249,#250,#251,#252,#253,#254,#255,#256,#257,#258,#259,#260,#261),.UNSPECIFIED.,.F.,.U.,(4,2,2,2,3,2,2,2,4),(-0.693918376927829,-0.517927823981867,-0.341937271035904,-0.170968635517952,0.0,0.170968635517952,0.341937271035904,0.517927823981867,0.693918376927830),.UNSPECIFIED.);
#263=EDGE_CURVE('',#240,#242,#262,.T.);
#264=ORIENTED_EDGE('',*,*,#263,.T.);
#265=CARTESIAN_POINT('',(-2.500000000000000,-15.803480629279109,18.0));
#266=VERTEX_POINT('',#265);
#267=CARTESIAN_POINT('',(0.0,0.0,18.0));
#268=DIRECTION('',(0.0,0.0,-1.0));
#269=DIRECTION('',(-1.0,0.0,0.0));
#270=AXIS2_PLACEMENT_3D('',#267,#268,#269);
#271=CIRCLE('',#270,16.0);
#272=EDGE_CURVE('',#242,#266,#271,.T.);
#273=ORIENTED_EDGE('',*,*,#272,.T.);
#274=CARTESIAN_POINT('',(-2.500000000000000,-15.803480629279109,26.999999999999993));
#275=VERTEX_POINT('',#274);
#276=CARTESIAN_POINT('',(-2.500000000000000,-15.803480629279109,18.0));
#277=CARTESIAN_POINT('',(-3.079429853003674,-15.711818882953088,18.0));
#278=CARTESIAN_POINT('',(-3.689500489771813,-15.579503108620225,18.118234558265879));
#279=CARTESIAN_POINT('',(-4.802792657479539,-15.273064970895424,18.586954499122971));
#280=CARTESIAN_POINT('',(-5.306558743922283,-15.100389354345364,18.937090976552927));
#281=CARTESIAN_POINT('',(-6.090885208671628,-14.801089187555210,19.732587362998551));
#282=CARTESIAN_POINT('',(-6.430444146559448,-14.653051081479799,20.229548455302368));
#283=CARTESIAN_POINT('',(-6.885172222147755,-14.444961921498024,21.327992480525300));
#284=CARTESIAN_POINT('',(-6.999999999999998,-14.387494569938163,21.930104548273487));
#285=CARTESIAN_POINT('',(-6.999999999999998,-14.387494569938163,23.069895451726499));
#286=CARTESIAN_POINT('',(-6.885172222147757,-14.444961921498027,23.672007519474690));
#287=CARTESIAN_POINT('',(-6.430444146559450,-14.653051081479800,24.770451544697622));
#288=CARTESIAN_POINT('',(-6.090885208671628,-14.801089187555208,25.267412637001435));
#289=CARTESIAN_POINT('',(-5.306558743922283,-15.100389354345360,26.062909023447062));
#290=CARTESIAN_POINT('',(-4.802792657479539,-15.273064970895424,26.413045500877015));
#291=CARTESIAN_POINT('',(-3.689500489771815,-15.579503108620225,26.881765441734107));
#292=CARTESIAN_POINT('',(-3.079429853003677,-15.711818882953088,26.999999999999993));
#293=CARTESIAN_POINT('',(-2.500000000000000,-15.803480629279109,26.999999999999993));
#294=B_SPLINE_CURVE_WITH_KNOTS('',3,(#276,#277,#278,#279,#280,#281,#282,#283,#284,#285,#286,#287,#288,#289,#290,#291,#292,#293),.UNSPECIFIED.,.F.,.U.,(4,2,2,2,2,2,2,2,4),(0.679666073525325,0.855656626471288,1.031647179417250,1.202615814935202,1.373584450453155,1.544553085971106,1.715521721489058,1.891512274435021,2.067502827380984),.UNSPECIFIED.);
#295=EDGE_CURVE('',#266,#275,#294,.T.);
#296=ORIENTED_EDGE('',*,*,#295,.T.);
#297=CARTESIAN_POINT('',(0.0,0.0,26.999999999999993));
#298=DIRECTION('',(0.0,0.0,1.0));
#299=DIRECTION('',(-1.0,0.0,0.0));
#300=AXIS2_PLACEMENT_3D('',#297,#298,#299);
#301=CIRCLE('',#300,16.0);
#302=EDGE_CURVE('',#275,#240,#301,.T.);
#303=ORIENTED_EDGE('',*,*,#302,.T.);
#304=EDGE_LOOP('',(#264,#273,#296,#303));
#305=FACE_BOUND('',#304,.T.);
#306=ORIENTED_EDGE('',*,*,#215,.F.);
#307=EDGE_LOOP('',(#306));
#308=FACE_BOUND('',#307,.T.);
#309=ADVANCED_FACE('',(#238,#305,#308),#227,.T.);
#310=CARTESIAN_POINT('',(0.0,0.0,44.500000000000000));
#311=DIRECTION('',(0.0,0.0,1.0));
#312=DIRECTION('',(-1.0,0.0,0.0));
#313=AXIS2_PLACEMENT_3D('',#310,#311,#312);
#314=CONICAL_SURFACE('',#313,10.500000000000000,45.000000000000135);
#315=ORIENTED_EDGE('',*,*,#128,.T.);
#316=EDGE_LOOP('',(#315));
#317=FACE_OUTER_BOUND('',#316,.T.);
#318=CARTESIAN_POINT('',(11.0,1.347067E-015,45.0));
#319=VERTEX_POINT('',#318);
#320=CARTESIAN_POINT('',(0.0,0.0,45.0));
#321=DIRECTION('',(0.0,0.0,1.0));
#322=DIRECTION('',(-1.0,0.0,0.0));
#323=AXIS2_PLACEMENT_3D('',#320,#321,#322);
#324=CIRCLE('',#323,11.0);
#325=EDGE_CURVE('',#319,#319,#324,.T.);
#326=ORIENTED_EDGE('',*,*,#325,.T.);
#327=EDGE_LOOP('',(#326));
#328=FACE_BOUND('',#327,.T.);
#329=ADVANCED_FACE('',(#317,#328),#314,.F.);
#330=CARTESIAN_POINT('',(0.0,0.0,45.0));
#331=DIRECTION('',(0.0,0.0,-1.0));
#332=DIRECTION('',(-1.0,0.0,0.0));
#333=AXIS2_PLACEMENT_3D('',#330,#331,#332);
#334=PLANE('',#333);
#335=CARTESIAN_POINT('',(15.0,-1.836910E-015,45.0));
#336=VERTEX_POINT('',#335);
#337=CARTESIAN_POINT('',(0.0,0.0,45.0));
#338=DIRECTION('',(0.0,0.0,-1.0));
#339=DIRECTION('',(-1.0,0.0,0.0));
#340=AXIS2_PLACEMENT_3D('',#337,#338,#339);
#341=CIRCLE('',#340,15.0);
#342=EDGE_CURVE('',#336,#336,#341,.T.);
#343=ORIENTED_EDGE('',*,*,#342,.F.);
#344=EDGE_LOOP('',(#343));
#345=FACE_OUTER_BOUND('',#344,.T.);
#346=ORIENTED_EDGE('',*,*,#325,.F.);
#347=EDGE_LOOP('',(#346));
#348=FACE_BOUND('',#347,.T.);
#349=ADVANCED_FACE('',(#345,#348),#334,.F.);
#350=CARTESIAN_POINT('',(0.0,0.0,44.500000000000000));
#351=DIRECTION('',(0.0,0.0,-1.0));
#352=DIRECTION('',(-1.0,0.0,0.0));
#353=AXIS2_PLACEMENT_3D('',#350,#351,#352);
#354=CONICAL_SURFACE('',#353,15.500000000000000,45.000000000000135);
#355=ORIENTED_EDGE('',*,*,#342,.T.);
#356=EDGE_LOOP('',(#355));
#357=FACE_OUTER_BOUND('',#356,.T.);
#358=ORIENTED_EDGE('',*,*,#235,.T.);
#359=EDGE_LOOP('',(#358));
#360=FACE_BOUND('',#359,.T.);
#361=ADVANCED_FACE('',(#357,#360),#354,.T.);
#362=CARTESIAN_POINT('',(-2.500000000000000,0.0,22.499999999999996));
#363=DIRECTION('',(0.0,-1.0,0.0));
#364=DIRECTION('',(0.0,0.0,1.0));
#365=AXIS2_PLACEMENT_3D('',#362,#363,#364);
#366=CYLINDRICAL_SURFACE('',#365,4.499999999999998);
#367=ORIENTED_EDGE('',*,*,#188,.F.);
#368=CARTESIAN_POINT('',(-2.500000000000000,-9.682458365518542,26.999999999999993));
#369=DIRECTION('',(0.0,-1.0,0.0));
#370=VECTOR('',#369,6.121022263760567);
#371=LINE('',#368,#370);
#372=EDGE_CURVE('',#159,#275,#371,.T.);
#373=ORIENTED_EDGE('',*,*,#372,.T.);
#374=ORIENTED_EDGE('',*,*,#295,.F.);
#375=CARTESIAN_POINT('',(-2.500000000000000,-9.682458365518542,18.0));
#376=DIRECTION('',(0.0,-1.0,0.0));
#377=VECTOR('',#376,6.121022263760567);
#378=LINE('',#375,#377);
#379=EDGE_CURVE('',#168,#266,#378,.T.);
#380=ORIENTED_EDGE('',*,*,#379,.F.);
#381=EDGE_LOOP('',(#367,#373,#374,#380));
#382=FACE_OUTER_BOUND('',#381,.T.);
#383=ADVANCED_FACE('',(#382),#366,.F.);
#384=CARTESIAN_POINT('',(2.500000000000000,0.0,18.0));
#385=DIRECTION('',(0.0,0.0,-1.0));
#386=DIRECTION('',(-1.0,0.0,0.0));
#387=AXIS2_PLACEMENT_3D('',#384,#385,#386);
#388=PLANE('',#387);
#389=ORIENTED_EDGE('',*,*,#195,.F.);
#390=ORIENTED_EDGE('',*,*,#379,.T.);
#391=ORIENTED_EDGE('',*,*,#272,.F.);
#392=CARTESIAN_POINT('',(2.500000000000000,-9.682458365518542,18.0));
#393=DIRECTION('',(0.0,-1.0,0.0));
#394=VECTOR('',#393,6.121022263760567);
#395=LINE('',#392,#394);
#396=EDGE_CURVE('',#133,#242,#395,.T.);
#397=ORIENTED_EDGE('',*,*,#396,.F.);
#398=EDGE_LOOP('',(#389,#390,#391,#397));
#399=FACE_OUTER_BOUND('',#398,.T.);
#400=ADVANCED_FACE('',(#399),#388,.F.);
#401=CARTESIAN_POINT('',(2.500000000000000,0.0,22.500000000000000));
#402=DIRECTION('',(0.0,-1.0,0.0));
#403=DIRECTION('',(0.0,0.0,-1.0));
#404=AXIS2_PLACEMENT_3D('',#401,#402,#403);
#405=CYLINDRICAL_SURFACE('',#404,4.499999999999998);
#406=ORIENTED_EDGE('',*,*,#156,.F.);
#407=ORIENTED_EDGE('',*,*,#396,.T.);
#408=ORIENTED_EDGE('',*,*,#263,.F.);
#409=CARTESIAN_POINT('',(2.500000000000000,-9.682458365518542,26.999999999999993));
#410=DIRECTION('',(0.0,-1.0,0.0));
#411=VECTOR('',#410,6.121022263760567);
#412=LINE('',#409,#411);
#413=EDGE_CURVE('',#135,#240,#412,.T.);
#414=ORIENTED_EDGE('',*,*,#413,.F.);
#415=EDGE_LOOP('',(#406,#407,#408,#414));
#416=FACE_OUTER_BOUND('',#415,.T.);
#417=ADVANCED_FACE('',(#416),#405,.F.);
#418=CARTESIAN_POINT('',(-2.500000000000000,0.0,26.999999999999993));
#419=DIRECTION('',(0.0,0.0,1.0));
#420=DIRECTION('',(1.0,0.0,0.0));
#421=AXIS2_PLACEMENT_3D('',#418,#419,#420);
#422=PLANE('',#421);
#423=ORIENTED_EDGE('',*,*,#165,.F.);
#424=ORIENTED_EDGE('',*,*,#413,.T.);
#425=ORIENTED_EDGE('',*,*,#302,.F.);
#426=ORIENTED_EDGE('',*,*,#372,.F.);
#427=EDGE_LOOP('',(#423,#424,#425,#426));
#428=FACE_OUTER_BOUND('',#427,.T.);
#429=ADVANCED_FACE('',(#428),#422,.F.);
#430=CLOSED_SHELL('',(#95,#115,#202,#222,#309,#329,#349,#361,#383,#400,#417,#429));
#431=MANIFOLD_SOLID_BREP('T\X2\011B\X0\leso1',#430);
#432=COLOUR_RGB('Kov-AL-6061 (matn\X2\FFFD\X0\)',0.847059011459351,0.839215993881226,0.839215993881226);
#433=FILL_AREA_STYLE_COLOUR('Kov-AL-6061 (matn\X2\FFFD\X0\)',#432);
#434=FILL_AREA_STYLE('Kov-AL-6061 (matn\X2\FFFD\X0\)',(#433));
#435=SURFACE_STYLE_FILL_AREA(#434);
#436=SURFACE_SIDE_STYLE('Kov-AL-6061 (matn\X2\FFFD\X0\)',(#435));
#437=SURFACE_STYLE_USAGE(.BOTH.,#436);
#438=PRESENTATION_STYLE_ASSIGNMENT((#437));
#439=STYLED_ITEM('',(#438),#431);
#440=MECHANICAL_DESIGN_GEOMETRIC_PRESENTATION_REPRESENTATION('',(#439),#36);
#441=ADVANCED_BREP_SHAPE_REPRESENTATION('ABSR',(#431),#36);
#442=SHAPE_REPRESENTATION_RELATIONSHIP('SRR','None',#441,#41);
ENDSEC;
END-ISO-10303-21;
