ISO-10303-21;
HEADER;
/* Generated by software containing ST-Developer
 * from STEP Tools, Inc. (www.steptools.com) 
 */

FILE_DESCRIPTION(
/* description */ ('Profil speci\X\E1ln\X\ED'),
/* implementation_level */ '2;1');

FILE_NAME(
/* name */ 
'D:\\VaultPracovni\\Zak\X\E1zky\\2014\\SKODA  AUTO\\2448-136_Ram_605x5
10x381\\904512.stp',
/* time_stamp */ '2014-03-20T13:53:51+01:00',
/* author */ ('AlutecKK'),
/* organization */ (''),
/* preprocessor_version */ 'ST-DEVELOPER v15.2',
/* originating_system */ 'Autodesk Inventor 2014',
/* authorisation */ '');

FILE_SCHEMA (('AUTOMOTIVE_DESIGN { 1 0 10303 214 3 1 1 }'));
ENDSEC;

DATA;
#10=SHAPE_REPRESENTATION_RELATIONSHIP('SRR','None',#577,#11);
#11=ADVANCED_BREP_SHAPE_REPRESENTATION($,(#354),#568);
#12=STYLED_ITEM($,(#585),#354);
#13=CIRCLE($,#370,0.749999);
#14=CIRCLE($,#371,0.749999);
#15=CIRCLE($,#374,0.749999);
#16=CIRCLE($,#375,0.749999);
#17=CYLINDRICAL_SURFACE($,#369,0.749999);
#18=CYLINDRICAL_SURFACE($,#373,0.749999);
#19=FACE_OUTER_BOUND($,#37,.T.);
#20=FACE_OUTER_BOUND($,#38,.T.);
#21=FACE_OUTER_BOUND($,#39,.T.);
#22=FACE_OUTER_BOUND($,#40,.T.);
#23=FACE_OUTER_BOUND($,#41,.T.);
#24=FACE_OUTER_BOUND($,#42,.T.);
#25=FACE_OUTER_BOUND($,#43,.T.);
#26=FACE_OUTER_BOUND($,#44,.T.);
#27=FACE_OUTER_BOUND($,#45,.T.);
#28=FACE_OUTER_BOUND($,#46,.T.);
#29=FACE_OUTER_BOUND($,#47,.T.);
#30=FACE_OUTER_BOUND($,#48,.T.);
#31=FACE_OUTER_BOUND($,#49,.T.);
#32=FACE_OUTER_BOUND($,#50,.T.);
#33=FACE_OUTER_BOUND($,#51,.T.);
#34=FACE_OUTER_BOUND($,#52,.T.);
#35=FACE_OUTER_BOUND($,#53,.T.);
#36=FACE_OUTER_BOUND($,#54,.T.);
#37=EDGE_LOOP($,(#223,#224,#225,#226));
#38=EDGE_LOOP($,(#227,#228,#229,#230));
#39=EDGE_LOOP($,(#231,#232,#233,#234));
#40=EDGE_LOOP($,(#235,#236,#237,#238));
#41=EDGE_LOOP($,(#239,#240,#241,#242));
#42=EDGE_LOOP($,(#243,#244,#245,#246));
#43=EDGE_LOOP($,(#247,#248,#249,#250));
#44=EDGE_LOOP($,(#251,#252,#253,#254));
#45=EDGE_LOOP($,(#255,#256,#257,#258));
#46=EDGE_LOOP($,(#259,#260,#261,#262));
#47=EDGE_LOOP($,(#263,#264,#265,#266));
#48=EDGE_LOOP($,(#267,#268,#269,#270));
#49=EDGE_LOOP($,(#271,#272,#273,#274));
#50=EDGE_LOOP($,(#275,#276,#277,#278));
#51=EDGE_LOOP($,(#279,#280,#281,#282));
#52=EDGE_LOOP($,(#283,#284,#285,#286));
#53=EDGE_LOOP($,(#287,#288,#289,#290,#291,#292,#293,#294,#295,#296,#297,
#298,#299,#300,#301,#302));
#54=EDGE_LOOP($,(#303,#304,#305,#306,#307,#308,#309,#310,#311,#312,#313,
#314,#315,#316,#317,#318));
#55=LINE($,#472,#99);
#56=LINE($,#474,#100);
#57=LINE($,#476,#101);
#58=LINE($,#477,#102);
#59=LINE($,#480,#103);
#60=LINE($,#482,#104);
#61=LINE($,#483,#105);
#62=LINE($,#486,#106);
#63=LINE($,#488,#107);
#64=LINE($,#489,#108);
#65=LINE($,#492,#109);
#66=LINE($,#494,#110);
#67=LINE($,#495,#111);
#68=LINE($,#498,#112);
#69=LINE($,#500,#113);
#70=LINE($,#501,#114);
#71=LINE($,#504,#115);
#72=LINE($,#506,#116);
#73=LINE($,#507,#117);
#74=LINE($,#510,#118);
#75=LINE($,#512,#119);
#76=LINE($,#513,#120);
#77=LINE($,#516,#121);
#78=LINE($,#518,#122);
#79=LINE($,#519,#123);
#80=LINE($,#522,#124);
#81=LINE($,#524,#125);
#82=LINE($,#525,#126);
#83=LINE($,#528,#127);
#84=LINE($,#530,#128);
#85=LINE($,#531,#129);
#86=LINE($,#534,#130);
#87=LINE($,#536,#131);
#88=LINE($,#537,#132);
#89=LINE($,#540,#133);
#90=LINE($,#542,#134);
#91=LINE($,#543,#135);
#92=LINE($,#546,#136);
#93=LINE($,#548,#137);
#94=LINE($,#549,#138);
#95=LINE($,#554,#139);
#96=LINE($,#558,#140);
#97=LINE($,#560,#141);
#98=LINE($,#561,#142);
#99=VECTOR($,#382,4.249996);
#100=VECTOR($,#383,10.);
#101=VECTOR($,#384,4.249996);
#102=VECTOR($,#385,10.);
#103=VECTOR($,#388,1.849998);
#104=VECTOR($,#389,10.);
#105=VECTOR($,#390,1.849998);
#106=VECTOR($,#393,4.499995);
#107=VECTOR($,#394,10.);
#108=VECTOR($,#395,4.499995);
#109=VECTOR($,#398,1.849998);
#110=VECTOR($,#399,10.);
#111=VECTOR($,#400,1.849998);
#112=VECTOR($,#403,7.99999199999999);
#113=VECTOR($,#404,10.);
#114=VECTOR($,#405,7.99999199999999);
#115=VECTOR($,#408,11.999988);
#116=VECTOR($,#409,10.);
#117=VECTOR($,#410,11.999988);
#118=VECTOR($,#413,7.99999199999999);
#119=VECTOR($,#414,10.);
#120=VECTOR($,#415,7.99999199999999);
#121=VECTOR($,#418,1.849998);
#122=VECTOR($,#419,10.);
#123=VECTOR($,#420,1.849998);
#124=VECTOR($,#423,4.499995);
#125=VECTOR($,#424,10.);
#126=VECTOR($,#425,4.499995);
#127=VECTOR($,#428,3.149997);
#128=VECTOR($,#429,10.);
#129=VECTOR($,#430,3.149997);
#130=VECTOR($,#433,2.499998);
#131=VECTOR($,#434,10.);
#132=VECTOR($,#435,2.499998);
#133=VECTOR($,#438,4.999995);
#134=VECTOR($,#439,10.);
#135=VECTOR($,#440,4.999995);
#136=VECTOR($,#443,1.749998);
#137=VECTOR($,#444,10.);
#138=VECTOR($,#445,1.749998);
#139=VECTOR($,#450,10.);
#140=VECTOR($,#455,10.49999);
#141=VECTOR($,#456,10.);
#142=VECTOR($,#457,10.49999);
#143=VERTEX_POINT($,#470);
#144=VERTEX_POINT($,#471);
#145=VERTEX_POINT($,#473);
#146=VERTEX_POINT($,#475);
#147=VERTEX_POINT($,#479);
#148=VERTEX_POINT($,#481);
#149=VERTEX_POINT($,#485);
#150=VERTEX_POINT($,#487);
#151=VERTEX_POINT($,#491);
#152=VERTEX_POINT($,#493);
#153=VERTEX_POINT($,#497);
#154=VERTEX_POINT($,#499);
#155=VERTEX_POINT($,#503);
#156=VERTEX_POINT($,#505);
#157=VERTEX_POINT($,#509);
#158=VERTEX_POINT($,#511);
#159=VERTEX_POINT($,#515);
#160=VERTEX_POINT($,#517);
#161=VERTEX_POINT($,#521);
#162=VERTEX_POINT($,#523);
#163=VERTEX_POINT($,#527);
#164=VERTEX_POINT($,#529);
#165=VERTEX_POINT($,#533);
#166=VERTEX_POINT($,#535);
#167=VERTEX_POINT($,#539);
#168=VERTEX_POINT($,#541);
#169=VERTEX_POINT($,#545);
#170=VERTEX_POINT($,#547);
#171=VERTEX_POINT($,#551);
#172=VERTEX_POINT($,#553);
#173=VERTEX_POINT($,#557);
#174=VERTEX_POINT($,#559);
#175=EDGE_CURVE($,#143,#144,#55,.T.);
#176=EDGE_CURVE($,#145,#144,#56,.T.);
#177=EDGE_CURVE($,#145,#146,#57,.T.);
#178=EDGE_CURVE($,#146,#143,#58,.T.);
#179=EDGE_CURVE($,#144,#147,#59,.T.);
#180=EDGE_CURVE($,#148,#147,#60,.T.);
#181=EDGE_CURVE($,#148,#145,#61,.T.);
#182=EDGE_CURVE($,#147,#149,#62,.T.);
#183=EDGE_CURVE($,#150,#149,#63,.T.);
#184=EDGE_CURVE($,#150,#148,#64,.T.);
#185=EDGE_CURVE($,#149,#151,#65,.T.);
#186=EDGE_CURVE($,#152,#151,#66,.T.);
#187=EDGE_CURVE($,#152,#150,#67,.T.);
#188=EDGE_CURVE($,#151,#153,#68,.T.);
#189=EDGE_CURVE($,#154,#153,#69,.T.);
#190=EDGE_CURVE($,#154,#152,#70,.T.);
#191=EDGE_CURVE($,#153,#155,#71,.T.);
#192=EDGE_CURVE($,#156,#155,#72,.T.);
#193=EDGE_CURVE($,#156,#154,#73,.T.);
#194=EDGE_CURVE($,#155,#157,#74,.T.);
#195=EDGE_CURVE($,#158,#157,#75,.T.);
#196=EDGE_CURVE($,#158,#156,#76,.T.);
#197=EDGE_CURVE($,#157,#159,#77,.T.);
#198=EDGE_CURVE($,#160,#159,#78,.T.);
#199=EDGE_CURVE($,#160,#158,#79,.T.);
#200=EDGE_CURVE($,#159,#161,#80,.T.);
#201=EDGE_CURVE($,#162,#161,#81,.T.);
#202=EDGE_CURVE($,#162,#160,#82,.T.);
#203=EDGE_CURVE($,#161,#163,#83,.T.);
#204=EDGE_CURVE($,#164,#163,#84,.T.);
#205=EDGE_CURVE($,#164,#162,#85,.T.);
#206=EDGE_CURVE($,#163,#165,#86,.T.);
#207=EDGE_CURVE($,#166,#165,#87,.T.);
#208=EDGE_CURVE($,#166,#164,#88,.T.);
#209=EDGE_CURVE($,#165,#167,#89,.T.);
#210=EDGE_CURVE($,#168,#167,#90,.T.);
#211=EDGE_CURVE($,#168,#166,#91,.T.);
#212=EDGE_CURVE($,#167,#169,#92,.T.);
#213=EDGE_CURVE($,#170,#169,#93,.T.);
#214=EDGE_CURVE($,#170,#168,#94,.T.);
#215=EDGE_CURVE($,#169,#171,#13,.T.);
#216=EDGE_CURVE($,#172,#171,#95,.T.);
#217=EDGE_CURVE($,#172,#170,#14,.T.);
#218=EDGE_CURVE($,#171,#173,#96,.T.);
#219=EDGE_CURVE($,#174,#173,#97,.T.);
#220=EDGE_CURVE($,#174,#172,#98,.T.);
#221=EDGE_CURVE($,#173,#143,#15,.T.);
#222=EDGE_CURVE($,#146,#174,#16,.T.);
#223=ORIENTED_EDGE($,*,*,#175,.T.);
#224=ORIENTED_EDGE($,*,*,#176,.F.);
#225=ORIENTED_EDGE($,*,*,#177,.T.);
#226=ORIENTED_EDGE($,*,*,#178,.T.);
#227=ORIENTED_EDGE($,*,*,#179,.T.);
#228=ORIENTED_EDGE($,*,*,#180,.F.);
#229=ORIENTED_EDGE($,*,*,#181,.T.);
#230=ORIENTED_EDGE($,*,*,#176,.T.);
#231=ORIENTED_EDGE($,*,*,#182,.T.);
#232=ORIENTED_EDGE($,*,*,#183,.F.);
#233=ORIENTED_EDGE($,*,*,#184,.T.);
#234=ORIENTED_EDGE($,*,*,#180,.T.);
#235=ORIENTED_EDGE($,*,*,#185,.T.);
#236=ORIENTED_EDGE($,*,*,#186,.F.);
#237=ORIENTED_EDGE($,*,*,#187,.T.);
#238=ORIENTED_EDGE($,*,*,#183,.T.);
#239=ORIENTED_EDGE($,*,*,#188,.T.);
#240=ORIENTED_EDGE($,*,*,#189,.F.);
#241=ORIENTED_EDGE($,*,*,#190,.T.);
#242=ORIENTED_EDGE($,*,*,#186,.T.);
#243=ORIENTED_EDGE($,*,*,#191,.T.);
#244=ORIENTED_EDGE($,*,*,#192,.F.);
#245=ORIENTED_EDGE($,*,*,#193,.T.);
#246=ORIENTED_EDGE($,*,*,#189,.T.);
#247=ORIENTED_EDGE($,*,*,#194,.T.);
#248=ORIENTED_EDGE($,*,*,#195,.F.);
#249=ORIENTED_EDGE($,*,*,#196,.T.);
#250=ORIENTED_EDGE($,*,*,#192,.T.);
#251=ORIENTED_EDGE($,*,*,#197,.T.);
#252=ORIENTED_EDGE($,*,*,#198,.F.);
#253=ORIENTED_EDGE($,*,*,#199,.T.);
#254=ORIENTED_EDGE($,*,*,#195,.T.);
#255=ORIENTED_EDGE($,*,*,#200,.T.);
#256=ORIENTED_EDGE($,*,*,#201,.F.);
#257=ORIENTED_EDGE($,*,*,#202,.T.);
#258=ORIENTED_EDGE($,*,*,#198,.T.);
#259=ORIENTED_EDGE($,*,*,#203,.T.);
#260=ORIENTED_EDGE($,*,*,#204,.F.);
#261=ORIENTED_EDGE($,*,*,#205,.T.);
#262=ORIENTED_EDGE($,*,*,#201,.T.);
#263=ORIENTED_EDGE($,*,*,#206,.T.);
#264=ORIENTED_EDGE($,*,*,#207,.F.);
#265=ORIENTED_EDGE($,*,*,#208,.T.);
#266=ORIENTED_EDGE($,*,*,#204,.T.);
#267=ORIENTED_EDGE($,*,*,#209,.T.);
#268=ORIENTED_EDGE($,*,*,#210,.F.);
#269=ORIENTED_EDGE($,*,*,#211,.T.);
#270=ORIENTED_EDGE($,*,*,#207,.T.);
#271=ORIENTED_EDGE($,*,*,#212,.T.);
#272=ORIENTED_EDGE($,*,*,#213,.F.);
#273=ORIENTED_EDGE($,*,*,#214,.T.);
#274=ORIENTED_EDGE($,*,*,#210,.T.);
#275=ORIENTED_EDGE($,*,*,#215,.T.);
#276=ORIENTED_EDGE($,*,*,#216,.F.);
#277=ORIENTED_EDGE($,*,*,#217,.T.);
#278=ORIENTED_EDGE($,*,*,#213,.T.);
#279=ORIENTED_EDGE($,*,*,#218,.T.);
#280=ORIENTED_EDGE($,*,*,#219,.F.);
#281=ORIENTED_EDGE($,*,*,#220,.T.);
#282=ORIENTED_EDGE($,*,*,#216,.T.);
#283=ORIENTED_EDGE($,*,*,#221,.T.);
#284=ORIENTED_EDGE($,*,*,#178,.F.);
#285=ORIENTED_EDGE($,*,*,#222,.T.);
#286=ORIENTED_EDGE($,*,*,#219,.T.);
#287=ORIENTED_EDGE($,*,*,#222,.F.);
#288=ORIENTED_EDGE($,*,*,#177,.F.);
#289=ORIENTED_EDGE($,*,*,#181,.F.);
#290=ORIENTED_EDGE($,*,*,#184,.F.);
#291=ORIENTED_EDGE($,*,*,#187,.F.);
#292=ORIENTED_EDGE($,*,*,#190,.F.);
#293=ORIENTED_EDGE($,*,*,#193,.F.);
#294=ORIENTED_EDGE($,*,*,#196,.F.);
#295=ORIENTED_EDGE($,*,*,#199,.F.);
#296=ORIENTED_EDGE($,*,*,#202,.F.);
#297=ORIENTED_EDGE($,*,*,#205,.F.);
#298=ORIENTED_EDGE($,*,*,#208,.F.);
#299=ORIENTED_EDGE($,*,*,#211,.F.);
#300=ORIENTED_EDGE($,*,*,#214,.F.);
#301=ORIENTED_EDGE($,*,*,#217,.F.);
#302=ORIENTED_EDGE($,*,*,#220,.F.);
#303=ORIENTED_EDGE($,*,*,#175,.F.);
#304=ORIENTED_EDGE($,*,*,#221,.F.);
#305=ORIENTED_EDGE($,*,*,#218,.F.);
#306=ORIENTED_EDGE($,*,*,#215,.F.);
#307=ORIENTED_EDGE($,*,*,#212,.F.);
#308=ORIENTED_EDGE($,*,*,#209,.F.);
#309=ORIENTED_EDGE($,*,*,#206,.F.);
#310=ORIENTED_EDGE($,*,*,#203,.F.);
#311=ORIENTED_EDGE($,*,*,#200,.F.);
#312=ORIENTED_EDGE($,*,*,#197,.F.);
#313=ORIENTED_EDGE($,*,*,#194,.F.);
#314=ORIENTED_EDGE($,*,*,#191,.F.);
#315=ORIENTED_EDGE($,*,*,#188,.F.);
#316=ORIENTED_EDGE($,*,*,#185,.F.);
#317=ORIENTED_EDGE($,*,*,#182,.F.);
#318=ORIENTED_EDGE($,*,*,#179,.F.);
#319=PLANE($,#356);
#320=PLANE($,#357);
#321=PLANE($,#358);
#322=PLANE($,#359);
#323=PLANE($,#360);
#324=PLANE($,#361);
#325=PLANE($,#362);
#326=PLANE($,#363);
#327=PLANE($,#364);
#328=PLANE($,#365);
#329=PLANE($,#366);
#330=PLANE($,#367);
#331=PLANE($,#368);
#332=PLANE($,#372);
#333=PLANE($,#376);
#334=PLANE($,#377);
#335=ADVANCED_FACE($,(#19),#319,.T.);
#336=ADVANCED_FACE($,(#20),#320,.T.);
#337=ADVANCED_FACE($,(#21),#321,.T.);
#338=ADVANCED_FACE($,(#22),#322,.T.);
#339=ADVANCED_FACE($,(#23),#323,.T.);
#340=ADVANCED_FACE($,(#24),#324,.T.);
#341=ADVANCED_FACE($,(#25),#325,.T.);
#342=ADVANCED_FACE($,(#26),#326,.T.);
#343=ADVANCED_FACE($,(#27),#327,.T.);
#344=ADVANCED_FACE($,(#28),#328,.T.);
#345=ADVANCED_FACE($,(#29),#329,.T.);
#346=ADVANCED_FACE($,(#30),#330,.T.);
#347=ADVANCED_FACE($,(#31),#331,.T.);
#348=ADVANCED_FACE($,(#32),#17,.T.);
#349=ADVANCED_FACE($,(#33),#332,.T.);
#350=ADVANCED_FACE($,(#34),#18,.T.);
#351=ADVANCED_FACE($,(#35),#333,.F.);
#352=ADVANCED_FACE($,(#36),#334,.T.);
#353=CLOSED_SHELL($,(#335,#336,#337,#338,#339,#340,#341,#342,#343,#344,
#345,#346,#347,#348,#349,#350,#351,#352));
#354=MANIFOLD_SOLID_BREP('T\X2\011B\X0\leso1',#353);
#355=AXIS2_PLACEMENT_3D('placement',#468,#378,#379);
#356=AXIS2_PLACEMENT_3D($,#469,#380,#381);
#357=AXIS2_PLACEMENT_3D($,#478,#386,#387);
#358=AXIS2_PLACEMENT_3D($,#484,#391,#392);
#359=AXIS2_PLACEMENT_3D($,#490,#396,#397);
#360=AXIS2_PLACEMENT_3D($,#496,#401,#402);
#361=AXIS2_PLACEMENT_3D($,#502,#406,#407);
#362=AXIS2_PLACEMENT_3D($,#508,#411,#412);
#363=AXIS2_PLACEMENT_3D($,#514,#416,#417);
#364=AXIS2_PLACEMENT_3D($,#520,#421,#422);
#365=AXIS2_PLACEMENT_3D($,#526,#426,#427);
#366=AXIS2_PLACEMENT_3D($,#532,#431,#432);
#367=AXIS2_PLACEMENT_3D($,#538,#436,#437);
#368=AXIS2_PLACEMENT_3D($,#544,#441,#442);
#369=AXIS2_PLACEMENT_3D($,#550,#446,#447);
#370=AXIS2_PLACEMENT_3D($,#552,#448,#449);
#371=AXIS2_PLACEMENT_3D($,#555,#451,#452);
#372=AXIS2_PLACEMENT_3D($,#556,#453,#454);
#373=AXIS2_PLACEMENT_3D($,#562,#458,#459);
#374=AXIS2_PLACEMENT_3D($,#563,#460,#461);
#375=AXIS2_PLACEMENT_3D($,#564,#462,#463);
#376=AXIS2_PLACEMENT_3D($,#565,#464,#465);
#377=AXIS2_PLACEMENT_3D($,#566,#466,#467);
#378=DIRECTION('axis',(0.,0.,1.));
#379=DIRECTION('refdir',(1.,0.,0.));
#380=DIRECTION('center_axis',(1.,2.61229192833395E-016,0.));
#381=DIRECTION('ref_axis',(0.,0.,-1.));
#382=DIRECTION($,(2.61229192833395E-016,-1.,0.));
#383=DIRECTION($,(0.,0.,1.));
#384=DIRECTION($,(-2.61229192833395E-016,1.,0.));
#385=DIRECTION($,(0.,0.,1.));
#386=DIRECTION('center_axis',(0.,-1.,0.));
#387=DIRECTION('ref_axis',(0.,0.,-1.));
#388=DIRECTION($,(-1.,0.,0.));
#389=DIRECTION($,(0.,0.,1.));
#390=DIRECTION($,(1.,0.,0.));
#391=DIRECTION('center_axis',(1.,0.,0.));
#392=DIRECTION('ref_axis',(0.,0.,-1.));
#393=DIRECTION($,(0.,-1.,0.));
#394=DIRECTION($,(0.,0.,1.));
#395=DIRECTION($,(0.,1.,0.));
#396=DIRECTION('center_axis',(0.,1.,0.));
#397=DIRECTION('ref_axis',(0.,0.,1.));
#398=DIRECTION($,(1.,0.,0.));
#399=DIRECTION($,(0.,0.,1.));
#400=DIRECTION($,(-1.,0.,0.));
#401=DIRECTION('center_axis',(1.,0.,0.));
#402=DIRECTION('ref_axis',(0.,0.,-1.));
#403=DIRECTION($,(0.,-1.,0.));
#404=DIRECTION($,(0.,0.,1.));
#405=DIRECTION($,(0.,1.,0.));
#406=DIRECTION('center_axis',(0.,-1.,0.));
#407=DIRECTION('ref_axis',(0.,0.,-1.));
#408=DIRECTION($,(-1.,0.,0.));
#409=DIRECTION($,(0.,0.,1.));
#410=DIRECTION($,(1.,0.,0.));
#411=DIRECTION('center_axis',(-1.,0.,0.));
#412=DIRECTION('ref_axis',(0.,0.,1.));
#413=DIRECTION($,(0.,1.,0.));
#414=DIRECTION($,(0.,0.,1.));
#415=DIRECTION($,(0.,-1.,0.));
#416=DIRECTION('center_axis',(0.,1.,0.));
#417=DIRECTION('ref_axis',(0.,0.,1.));
#418=DIRECTION($,(1.,0.,0.));
#419=DIRECTION($,(0.,0.,1.));
#420=DIRECTION($,(-1.,0.,0.));
#421=DIRECTION('center_axis',(-1.,0.,0.));
#422=DIRECTION('ref_axis',(0.,0.,1.));
#423=DIRECTION($,(0.,1.,0.));
#424=DIRECTION($,(0.,0.,1.));
#425=DIRECTION($,(0.,-1.,0.));
#426=DIRECTION('center_axis',(0.,1.,0.));
#427=DIRECTION('ref_axis',(0.,0.,1.));
#428=DIRECTION($,(1.,0.,0.));
#429=DIRECTION($,(0.,0.,1.));
#430=DIRECTION($,(-1.,0.,0.));
#431=DIRECTION('center_axis',(-1.,0.,0.));
#432=DIRECTION('ref_axis',(0.,0.,1.));
#433=DIRECTION($,(0.,1.,0.));
#434=DIRECTION($,(0.,0.,1.));
#435=DIRECTION($,(0.,-1.,0.));
#436=DIRECTION('center_axis',(0.,-1.,0.));
#437=DIRECTION('ref_axis',(0.,0.,-1.));
#438=DIRECTION($,(-1.,0.,0.));
#439=DIRECTION($,(0.,0.,1.));
#440=DIRECTION($,(1.,0.,0.));
#441=DIRECTION('center_axis',(-1.,0.,0.));
#442=DIRECTION('ref_axis',(0.,0.,1.));
#443=DIRECTION($,(0.,1.,0.));
#444=DIRECTION($,(0.,0.,1.));
#445=DIRECTION($,(0.,-1.,0.));
#446=DIRECTION('center_axis',(0.,0.,1.));
#447=DIRECTION('ref_axis',(0.,1.,0.));
#448=DIRECTION('center_axis',(0.,0.,-1.));
#449=DIRECTION('ref_axis',(0.,1.,0.));
#450=DIRECTION($,(0.,0.,1.));
#451=DIRECTION('center_axis',(0.,0.,1.));
#452=DIRECTION('ref_axis',(0.,1.,0.));
#453=DIRECTION('center_axis',(0.,1.,0.));
#454=DIRECTION('ref_axis',(0.,0.,1.));
#455=DIRECTION($,(1.,0.,0.));
#456=DIRECTION($,(0.,0.,1.));
#457=DIRECTION($,(-1.,0.,0.));
#458=DIRECTION('center_axis',(0.,0.,1.));
#459=DIRECTION('ref_axis',(1.,0.,0.));
#460=DIRECTION('center_axis',(0.,0.,-1.));
#461=DIRECTION('ref_axis',(1.,0.,0.));
#462=DIRECTION('center_axis',(0.,0.,1.));
#463=DIRECTION('ref_axis',(1.,0.,0.));
#464=DIRECTION('center_axis',(0.,0.,1.));
#465=DIRECTION('ref_axis',(1.,0.,0.));
#466=DIRECTION('center_axis',(0.,0.,1.));
#467=DIRECTION('ref_axis',(1.,0.,0.));
#468=CARTESIAN_POINT('',(0.,0.,0.));
#469=CARTESIAN_POINT('Origin',(5.999994,4.249996,0.));
#470=CARTESIAN_POINT('',(5.999994,4.249996,10.));
#471=CARTESIAN_POINT('',(5.999994,0.,10.));
#472=CARTESIAN_POINT($,(5.999994,0.,10.));
#473=CARTESIAN_POINT('',(5.999994,0.,0.));
#474=CARTESIAN_POINT($,(5.999994,0.,0.));
#475=CARTESIAN_POINT('',(5.999994,4.249996,0.));
#476=CARTESIAN_POINT($,(5.999994,0.,0.));
#477=CARTESIAN_POINT($,(5.999994,4.249996,0.));
#478=CARTESIAN_POINT('Origin',(5.999994,0.,0.));
#479=CARTESIAN_POINT('',(4.149996,0.,10.));
#480=CARTESIAN_POINT($,(4.149996,0.,10.));
#481=CARTESIAN_POINT('',(4.149996,0.,0.));
#482=CARTESIAN_POINT($,(4.149996,0.,0.));
#483=CARTESIAN_POINT($,(4.149996,0.,0.));
#484=CARTESIAN_POINT('Origin',(4.149996,0.,0.));
#485=CARTESIAN_POINT('',(4.149996,-4.499995,10.));
#486=CARTESIAN_POINT($,(4.149996,-4.499995,10.));
#487=CARTESIAN_POINT('',(4.149996,-4.499995,0.));
#488=CARTESIAN_POINT($,(4.149996,-4.499995,0.));
#489=CARTESIAN_POINT($,(4.149996,-4.499995,0.));
#490=CARTESIAN_POINT('Origin',(4.149996,-4.499995,0.));
#491=CARTESIAN_POINT('',(5.999994,-4.499995,10.));
#492=CARTESIAN_POINT($,(5.999994,-4.499995,10.));
#493=CARTESIAN_POINT('',(5.999994,-4.499995,0.));
#494=CARTESIAN_POINT($,(5.999994,-4.499995,0.));
#495=CARTESIAN_POINT($,(5.999994,-4.499995,0.));
#496=CARTESIAN_POINT('Origin',(5.999994,-4.499995,0.));
#497=CARTESIAN_POINT('',(5.999994,-12.499987,10.));
#498=CARTESIAN_POINT($,(5.999994,-12.499987,10.));
#499=CARTESIAN_POINT('',(5.999994,-12.499987,0.));
#500=CARTESIAN_POINT($,(5.999994,-12.499987,0.));
#501=CARTESIAN_POINT($,(5.999994,-12.499987,0.));
#502=CARTESIAN_POINT('Origin',(5.999994,-12.499987,0.));
#503=CARTESIAN_POINT('',(-5.999994,-12.499987,10.));
#504=CARTESIAN_POINT($,(-5.999994,-12.499987,10.));
#505=CARTESIAN_POINT('',(-5.999994,-12.499987,0.));
#506=CARTESIAN_POINT($,(-5.999994,-12.499987,0.));
#507=CARTESIAN_POINT($,(-5.999994,-12.499987,0.));
#508=CARTESIAN_POINT('Origin',(-5.999994,-12.499987,0.));
#509=CARTESIAN_POINT('',(-5.999994,-4.499995,10.));
#510=CARTESIAN_POINT($,(-5.999994,-4.499995,10.));
#511=CARTESIAN_POINT('',(-5.999994,-4.499995,0.));
#512=CARTESIAN_POINT($,(-5.999994,-4.499995,0.));
#513=CARTESIAN_POINT($,(-5.999994,-4.499995,0.));
#514=CARTESIAN_POINT('Origin',(-5.999994,-4.499995,0.));
#515=CARTESIAN_POINT('',(-4.149996,-4.499995,10.));
#516=CARTESIAN_POINT($,(-4.149996,-4.499995,10.));
#517=CARTESIAN_POINT('',(-4.149996,-4.499995,0.));
#518=CARTESIAN_POINT($,(-4.149996,-4.499995,0.));
#519=CARTESIAN_POINT($,(-4.149996,-4.499995,0.));
#520=CARTESIAN_POINT('Origin',(-4.149996,-4.499995,0.));
#521=CARTESIAN_POINT('',(-4.149996,0.,10.));
#522=CARTESIAN_POINT($,(-4.149996,0.,10.));
#523=CARTESIAN_POINT('',(-4.149996,0.,0.));
#524=CARTESIAN_POINT($,(-4.149996,0.,0.));
#525=CARTESIAN_POINT($,(-4.149996,0.,0.));
#526=CARTESIAN_POINT('Origin',(-4.149996,0.,0.));
#527=CARTESIAN_POINT('',(-0.999999,0.,10.));
#528=CARTESIAN_POINT($,(-0.999999,0.,10.));
#529=CARTESIAN_POINT('',(-0.999999,0.,0.));
#530=CARTESIAN_POINT($,(-0.999999,0.,0.));
#531=CARTESIAN_POINT($,(-0.999999,0.,0.));
#532=CARTESIAN_POINT('Origin',(-0.999999,0.,0.));
#533=CARTESIAN_POINT('',(-0.999999,2.499998,10.));
#534=CARTESIAN_POINT($,(-0.999999,2.499998,10.));
#535=CARTESIAN_POINT('',(-0.999999,2.499998,0.));
#536=CARTESIAN_POINT($,(-0.999999,2.499998,0.));
#537=CARTESIAN_POINT($,(-0.999999,2.499998,0.));
#538=CARTESIAN_POINT('Origin',(-0.999999,2.499998,0.));
#539=CARTESIAN_POINT('',(-5.999994,2.499998,10.));
#540=CARTESIAN_POINT($,(-5.999994,2.499998,10.));
#541=CARTESIAN_POINT('',(-5.999994,2.499998,0.));
#542=CARTESIAN_POINT($,(-5.999994,2.499998,0.));
#543=CARTESIAN_POINT($,(-5.999994,2.499998,0.));
#544=CARTESIAN_POINT('Origin',(-5.999994,2.499998,0.));
#545=CARTESIAN_POINT('',(-5.999994,4.249996,10.));
#546=CARTESIAN_POINT($,(-5.999994,4.249996,10.));
#547=CARTESIAN_POINT('',(-5.999994,4.249996,0.));
#548=CARTESIAN_POINT($,(-5.999994,4.249996,0.));
#549=CARTESIAN_POINT($,(-5.999994,4.249996,0.));
#550=CARTESIAN_POINT('Origin',(-5.249995,4.249996,0.));
#551=CARTESIAN_POINT('',(-5.249995,4.999995,10.));
#552=CARTESIAN_POINT('Origin',(-5.249995,4.249996,10.));
#553=CARTESIAN_POINT('',(-5.249995,4.999995,0.));
#554=CARTESIAN_POINT($,(-5.249995,4.999995,0.));
#555=CARTESIAN_POINT('Origin',(-5.249995,4.249996,0.));
#556=CARTESIAN_POINT('Origin',(-5.249995,4.999995,0.));
#557=CARTESIAN_POINT('',(5.249995,4.999995,10.));
#558=CARTESIAN_POINT($,(5.249995,4.999995,10.));
#559=CARTESIAN_POINT('',(5.249995,4.999995,0.));
#560=CARTESIAN_POINT($,(5.249995,4.999995,0.));
#561=CARTESIAN_POINT($,(5.249995,4.999995,0.));
#562=CARTESIAN_POINT('Origin',(5.249995,4.249996,0.));
#563=CARTESIAN_POINT('Origin',(5.249995,4.249996,10.));
#564=CARTESIAN_POINT('Origin',(5.249995,4.249996,0.));
#565=CARTESIAN_POINT('Origin',(-0.051661000208379,-3.17422361941847,0.));
#566=CARTESIAN_POINT('Origin',(-0.0516610002083793,-3.17422361941847,10.));
#567=UNCERTAINTY_MEASURE_WITH_UNIT(LENGTH_MEASURE(0.01),#569,
'DISTANCE_ACCURACY_VALUE',
'Maximum model space distance between geometric entities at asserted c
onnectivities');
#568=(
GEOMETRIC_REPRESENTATION_CONTEXT(3)
GLOBAL_UNCERTAINTY_ASSIGNED_CONTEXT((#567))
GLOBAL_UNIT_ASSIGNED_CONTEXT((#569,#572,#570))
REPRESENTATION_CONTEXT('','3D')
);
#569=(
LENGTH_UNIT()
NAMED_UNIT(*)
SI_UNIT(.MILLI.,.METRE.)
);
#570=(
NAMED_UNIT(*)
SI_UNIT($,.STERADIAN.)
SOLID_ANGLE_UNIT()
);
#571=DIMENSIONAL_EXPONENTS(0.,0.,0.,0.,0.,0.,0.);
#572=(
CONVERSION_BASED_UNIT('degree',#574)
NAMED_UNIT(#571)
PLANE_ANGLE_UNIT()
);
#573=(
NAMED_UNIT(*)
PLANE_ANGLE_UNIT()
SI_UNIT($,.RADIAN.)
);
#574=PLANE_ANGLE_MEASURE_WITH_UNIT(PLANE_ANGLE_MEASURE(0.01745329252),#573);
#575=SHAPE_DEFINITION_REPRESENTATION(#576,#577);
#576=PRODUCT_DEFINITION_SHAPE('',$,#579);
#577=SHAPE_REPRESENTATION('',(#355),#568);
#578=PRODUCT_DEFINITION_CONTEXT('3D Mechanical Parts',#582,'design');
#579=PRODUCT_DEFINITION('904512','904512',#580,#578);
#580=PRODUCT_DEFINITION_FORMATION('',$,#584);
#581=APPLICATION_PROTOCOL_DEFINITION('international standard',
'automotive_design',2009,#582);
#582=APPLICATION_CONTEXT(
'Core Data for Automotive Mechanical Design Process');
#583=PRODUCT_CONTEXT('3D Mechanical Parts',#582,'mechanical');
#584=PRODUCT('904512','904512',$,(#583));
#585=PRESENTATION_STYLE_ASSIGNMENT((#586));
#586=SURFACE_STYLE_USAGE(.BOTH.,#587);
#587=SURFACE_SIDE_STYLE($,(#588));
#588=SURFACE_STYLE_FILL_AREA(#589);
#589=FILL_AREA_STYLE($,(#590));
#590=FILL_AREA_STYLE_COLOUR($,#591);
#591=COLOUR_RGB('',0.529411764705882,0.529411764705882,0.529411764705882);
ENDSEC;
END-ISO-10303-21;
