ISO-10303-21;
HEADER;
/* Generated by software containing ST-Developer
 * from STEP Tools, Inc. (www.steptools.com) 
 */

FILE_DESCRIPTION(
/* description */ (''),
/* implementation_level */ '2;1');

FILE_NAME(
/* name */ 'D:\\VaultPracovni\\Zak\X\E1zky\\2013\\AlutecKK\\stp\\90455
0.stp',
/* time_stamp */ '2013-12-12T17:52:16+01:00',
/* author */ ('VeronikaF'),
/* organization */ (''),
/* preprocessor_version */ 'ST-DEVELOPER v15.2',
/* originating_system */ 'Autodesk Inventor 2014',
/* authorisation */ '');

FILE_SCHEMA (('AUTOMOTIVE_DESIGN { 1 0 10303 214 3 1 1 }'));
ENDSEC;

DATA;
#10=ITEM_DEFINED_TRANSFORMATION($,$,#299,#349);
#11=ITEM_DEFINED_TRANSFORMATION($,$,#299,#350);
#12=ITEM_DEFINED_TRANSFORMATION($,$,#323,#351);
#13=(
REPRESENTATION_RELATIONSHIP($,$,#555,#557)
REPRESENTATION_RELATIONSHIP_WITH_TRANSFORMATION(#10)
SHAPE_REPRESENTATION_RELATIONSHIP()
);
#14=(
REPRESENTATION_RELATIONSHIP($,$,#555,#557)
REPRESENTATION_RELATIONSHIP_WITH_TRANSFORMATION(#11)
SHAPE_REPRESENTATION_RELATIONSHIP()
);
#15=(
REPRESENTATION_RELATIONSHIP($,$,#556,#557)
REPRESENTATION_RELATIONSHIP_WITH_TRANSFORMATION(#12)
SHAPE_REPRESENTATION_RELATIONSHIP()
);
#16=CONTEXT_DEPENDENT_SHAPE_REPRESENTATION(#13,#552);
#17=CONTEXT_DEPENDENT_SHAPE_REPRESENTATION(#14,#553);
#18=CONTEXT_DEPENDENT_SHAPE_REPRESENTATION(#15,#554);
#19=NEXT_ASSEMBLY_USAGE_OCCURRENCE('50-\X2\010D\X0\ep I:1',$,$,#561,#559,
$);
#20=NEXT_ASSEMBLY_USAGE_OCCURRENCE('50-\X2\010D\X0\ep I:2',$,$,#561,#559,
$);
#21=NEXT_ASSEMBLY_USAGE_OCCURRENCE('Trubka_d50_001:1',$,$,#561,#560,$);
#22=SHAPE_REPRESENTATION_RELATIONSHIP('SRR','None',#555,#24);
#23=SHAPE_REPRESENTATION_RELATIONSHIP('SRR','None',#556,#25);
#24=ADVANCED_BREP_SHAPE_REPRESENTATION($,(#297),#537);
#25=ADVANCED_BREP_SHAPE_REPRESENTATION($,(#298),#538);
#26=STYLED_ITEM($,(#571),#297);
#27=STYLED_ITEM($,(#571),#283);
#28=STYLED_ITEM($,(#571),#284);
#29=STYLED_ITEM($,(#571),#285);
#30=STYLED_ITEM($,(#571),#286);
#31=STYLED_ITEM($,(#571),#287);
#32=STYLED_ITEM($,(#571),#288);
#33=STYLED_ITEM($,(#571),#289);
#34=STYLED_ITEM($,(#571),#290);
#35=STYLED_ITEM($,(#571),#291);
#36=STYLED_ITEM($,(#571),#292);
#37=STYLED_ITEM($,(#571),#293);
#38=STYLED_ITEM($,(#571),#294);
#39=STYLED_ITEM($,(#571),#298);
#40=PLANE($,#309);
#41=PLANE($,#317);
#42=PLANE($,#318);
#43=PLANE($,#322);
#44=PLANE($,#327);
#45=PLANE($,#334);
#46=PLANE($,#343);
#47=PLANE($,#345);
#48=CYLINDRICAL_SURFACE($,#305,0.8);
#49=CYLINDRICAL_SURFACE($,#311,8.5);
#50=CYLINDRICAL_SURFACE($,#316,7.5);
#51=CYLINDRICAL_SURFACE($,#320,23.);
#52=CYLINDRICAL_SURFACE($,#329,23.);
#53=CYLINDRICAL_SURFACE($,#336,23.0000000000001);
#54=CYLINDRICAL_SURFACE($,#340,25.);
#55=CYLINDRICAL_SURFACE($,#347,22.);
#56=FACE_BOUND($,#104,.T.);
#57=FACE_BOUND($,#106,.T.);
#58=FACE_BOUND($,#108,.T.);
#59=FACE_BOUND($,#109,.T.);
#60=FACE_BOUND($,#110,.T.);
#61=FACE_BOUND($,#112,.T.);
#62=FACE_BOUND($,#114,.T.);
#63=FACE_BOUND($,#116,.T.);
#64=FACE_BOUND($,#117,.T.);
#65=FACE_BOUND($,#118,.T.);
#66=FACE_BOUND($,#120,.T.);
#67=FACE_BOUND($,#122,.T.);
#68=FACE_BOUND($,#125,.T.);
#69=FACE_BOUND($,#127,.T.);
#70=FACE_BOUND($,#129,.T.);
#71=FACE_BOUND($,#131,.T.);
#72=FACE_BOUND($,#133,.T.);
#73=FACE_BOUND($,#135,.T.);
#74=FACE_BOUND($,#137,.T.);
#75=FACE_BOUND($,#139,.T.);
#76=FACE_BOUND($,#141,.T.);
#77=FACE_BOUND($,#143,.T.);
#78=FACE_BOUND($,#144,.T.);
#79=FACE_BOUND($,#145,.T.);
#80=FACE_BOUND($,#147,.T.);
#81=FACE_OUTER_BOUND($,#102,.T.);
#82=FACE_OUTER_BOUND($,#103,.T.);
#83=FACE_OUTER_BOUND($,#105,.T.);
#84=FACE_OUTER_BOUND($,#107,.T.);
#85=FACE_OUTER_BOUND($,#111,.T.);
#86=FACE_OUTER_BOUND($,#113,.T.);
#87=FACE_OUTER_BOUND($,#115,.T.);
#88=FACE_OUTER_BOUND($,#119,.T.);
#89=FACE_OUTER_BOUND($,#121,.T.);
#90=FACE_OUTER_BOUND($,#123,.T.);
#91=FACE_OUTER_BOUND($,#124,.T.);
#92=FACE_OUTER_BOUND($,#126,.T.);
#93=FACE_OUTER_BOUND($,#128,.T.);
#94=FACE_OUTER_BOUND($,#130,.T.);
#95=FACE_OUTER_BOUND($,#132,.T.);
#96=FACE_OUTER_BOUND($,#134,.T.);
#97=FACE_OUTER_BOUND($,#136,.T.);
#98=FACE_OUTER_BOUND($,#138,.T.);
#99=FACE_OUTER_BOUND($,#140,.T.);
#100=FACE_OUTER_BOUND($,#142,.T.);
#101=FACE_OUTER_BOUND($,#146,.T.);
#102=EDGE_LOOP($,(#217));
#103=EDGE_LOOP($,(#218));
#104=EDGE_LOOP($,(#219));
#105=EDGE_LOOP($,(#220));
#106=EDGE_LOOP($,(#221));
#107=EDGE_LOOP($,(#222));
#108=EDGE_LOOP($,(#223));
#109=EDGE_LOOP($,(#224));
#110=EDGE_LOOP($,(#225));
#111=EDGE_LOOP($,(#226));
#112=EDGE_LOOP($,(#227));
#113=EDGE_LOOP($,(#228));
#114=EDGE_LOOP($,(#229));
#115=EDGE_LOOP($,(#230));
#116=EDGE_LOOP($,(#231));
#117=EDGE_LOOP($,(#232));
#118=EDGE_LOOP($,(#233));
#119=EDGE_LOOP($,(#234));
#120=EDGE_LOOP($,(#235));
#121=EDGE_LOOP($,(#236));
#122=EDGE_LOOP($,(#237));
#123=EDGE_LOOP($,(#238));
#124=EDGE_LOOP($,(#239));
#125=EDGE_LOOP($,(#240));
#126=EDGE_LOOP($,(#241));
#127=EDGE_LOOP($,(#242));
#128=EDGE_LOOP($,(#243));
#129=EDGE_LOOP($,(#244));
#130=EDGE_LOOP($,(#245));
#131=EDGE_LOOP($,(#246));
#132=EDGE_LOOP($,(#247));
#133=EDGE_LOOP($,(#248));
#134=EDGE_LOOP($,(#249));
#135=EDGE_LOOP($,(#250));
#136=EDGE_LOOP($,(#251));
#137=EDGE_LOOP($,(#252));
#138=EDGE_LOOP($,(#253));
#139=EDGE_LOOP($,(#254));
#140=EDGE_LOOP($,(#255));
#141=EDGE_LOOP($,(#256));
#142=EDGE_LOOP($,(#257));
#143=EDGE_LOOP($,(#258));
#144=EDGE_LOOP($,(#259));
#145=EDGE_LOOP($,(#260));
#146=EDGE_LOOP($,(#261));
#147=EDGE_LOOP($,(#262));
#148=CIRCLE($,#301,0.8);
#149=CIRCLE($,#303,1.575);
#150=CIRCLE($,#304,0.8);
#151=CIRCLE($,#307,8.3);
#152=CIRCLE($,#308,8.5);
#153=CIRCLE($,#310,7.5);
#154=CIRCLE($,#312,8.5);
#155=CIRCLE($,#314,6.5);
#156=CIRCLE($,#315,7.5);
#157=CIRCLE($,#319,23.);
#158=CIRCLE($,#321,23.);
#159=CIRCLE($,#325,23.);
#160=CIRCLE($,#326,23.5);
#161=CIRCLE($,#328,24.);
#162=CIRCLE($,#330,23.);
#163=CIRCLE($,#332,23.0000000000001);
#164=CIRCLE($,#333,23.5000000000001);
#165=CIRCLE($,#335,24.);
#166=CIRCLE($,#337,23.0000000000001);
#167=CIRCLE($,#339,25.);
#168=CIRCLE($,#341,25.);
#169=CIRCLE($,#344,22.);
#170=CIRCLE($,#346,22.);
#171=VERTEX_POINT($,#460);
#172=VERTEX_POINT($,#463);
#173=VERTEX_POINT($,#465);
#174=VERTEX_POINT($,#469);
#175=VERTEX_POINT($,#471);
#176=VERTEX_POINT($,#474);
#177=VERTEX_POINT($,#477);
#178=VERTEX_POINT($,#480);
#179=VERTEX_POINT($,#482);
#180=VERTEX_POINT($,#487);
#181=VERTEX_POINT($,#490);
#182=VERTEX_POINT($,#495);
#183=VERTEX_POINT($,#497);
#184=VERTEX_POINT($,#500);
#185=VERTEX_POINT($,#503);
#186=VERTEX_POINT($,#506);
#187=VERTEX_POINT($,#508);
#188=VERTEX_POINT($,#511);
#189=VERTEX_POINT($,#514);
#190=VERTEX_POINT($,#517);
#191=VERTEX_POINT($,#520);
#192=VERTEX_POINT($,#524);
#193=VERTEX_POINT($,#527);
#194=EDGE_CURVE($,#171,#171,#148,.T.);
#195=EDGE_CURVE($,#172,#172,#149,.T.);
#196=EDGE_CURVE($,#173,#173,#150,.T.);
#197=EDGE_CURVE($,#174,#174,#151,.T.);
#198=EDGE_CURVE($,#175,#175,#152,.T.);
#199=EDGE_CURVE($,#176,#176,#153,.T.);
#200=EDGE_CURVE($,#177,#177,#154,.T.);
#201=EDGE_CURVE($,#178,#178,#155,.T.);
#202=EDGE_CURVE($,#179,#179,#156,.T.);
#203=EDGE_CURVE($,#180,#180,#157,.T.);
#204=EDGE_CURVE($,#181,#181,#158,.T.);
#205=EDGE_CURVE($,#182,#182,#159,.T.);
#206=EDGE_CURVE($,#183,#183,#160,.T.);
#207=EDGE_CURVE($,#184,#184,#161,.T.);
#208=EDGE_CURVE($,#185,#185,#162,.T.);
#209=EDGE_CURVE($,#186,#186,#163,.T.);
#210=EDGE_CURVE($,#187,#187,#164,.T.);
#211=EDGE_CURVE($,#188,#188,#165,.T.);
#212=EDGE_CURVE($,#189,#189,#166,.T.);
#213=EDGE_CURVE($,#190,#190,#167,.T.);
#214=EDGE_CURVE($,#191,#191,#168,.T.);
#215=EDGE_CURVE($,#192,#192,#169,.T.);
#216=EDGE_CURVE($,#193,#193,#170,.T.);
#217=ORIENTED_EDGE($,*,*,#194,.T.);
#218=ORIENTED_EDGE($,*,*,#195,.F.);
#219=ORIENTED_EDGE($,*,*,#196,.F.);
#220=ORIENTED_EDGE($,*,*,#196,.T.);
#221=ORIENTED_EDGE($,*,*,#194,.F.);
#222=ORIENTED_EDGE($,*,*,#197,.T.);
#223=ORIENTED_EDGE($,*,*,#198,.T.);
#224=ORIENTED_EDGE($,*,*,#199,.T.);
#225=ORIENTED_EDGE($,*,*,#197,.F.);
#226=ORIENTED_EDGE($,*,*,#200,.F.);
#227=ORIENTED_EDGE($,*,*,#198,.F.);
#228=ORIENTED_EDGE($,*,*,#201,.T.);
#229=ORIENTED_EDGE($,*,*,#202,.T.);
#230=ORIENTED_EDGE($,*,*,#199,.F.);
#231=ORIENTED_EDGE($,*,*,#202,.F.);
#232=ORIENTED_EDGE($,*,*,#195,.T.);
#233=ORIENTED_EDGE($,*,*,#201,.F.);
#234=ORIENTED_EDGE($,*,*,#203,.F.);
#235=ORIENTED_EDGE($,*,*,#200,.T.);
#236=ORIENTED_EDGE($,*,*,#204,.F.);
#237=ORIENTED_EDGE($,*,*,#203,.T.);
#238=ORIENTED_EDGE($,*,*,#204,.T.);
#239=ORIENTED_EDGE($,*,*,#205,.T.);
#240=ORIENTED_EDGE($,*,*,#206,.T.);
#241=ORIENTED_EDGE($,*,*,#207,.F.);
#242=ORIENTED_EDGE($,*,*,#206,.F.);
#243=ORIENTED_EDGE($,*,*,#208,.F.);
#244=ORIENTED_EDGE($,*,*,#205,.F.);
#245=ORIENTED_EDGE($,*,*,#209,.T.);
#246=ORIENTED_EDGE($,*,*,#210,.T.);
#247=ORIENTED_EDGE($,*,*,#211,.F.);
#248=ORIENTED_EDGE($,*,*,#210,.F.);
#249=ORIENTED_EDGE($,*,*,#212,.T.);
#250=ORIENTED_EDGE($,*,*,#209,.F.);
#251=ORIENTED_EDGE($,*,*,#213,.T.);
#252=ORIENTED_EDGE($,*,*,#207,.T.);
#253=ORIENTED_EDGE($,*,*,#214,.F.);
#254=ORIENTED_EDGE($,*,*,#213,.F.);
#255=ORIENTED_EDGE($,*,*,#211,.T.);
#256=ORIENTED_EDGE($,*,*,#214,.T.);
#257=ORIENTED_EDGE($,*,*,#208,.T.);
#258=ORIENTED_EDGE($,*,*,#215,.F.);
#259=ORIENTED_EDGE($,*,*,#216,.F.);
#260=ORIENTED_EDGE($,*,*,#212,.F.);
#261=ORIENTED_EDGE($,*,*,#215,.T.);
#262=ORIENTED_EDGE($,*,*,#216,.T.);
#263=CONICAL_SURFACE($,#300,0.4,59.);
#264=CONICAL_SURFACE($,#302,1.1875,30.);
#265=CONICAL_SURFACE($,#306,8.4,44.9999999999996);
#266=CONICAL_SURFACE($,#313,7.,44.9999999999999);
#267=CONICAL_SURFACE($,#324,23.25,44.9999999999999);
#268=CONICAL_SURFACE($,#331,23.2500000000001,44.9999999999995);
#269=CONICAL_SURFACE($,#338,24.5,45.);
#270=CONICAL_SURFACE($,#342,24.5,44.9999999999996);
#271=ADVANCED_FACE($,(#81),#263,.F.);
#272=ADVANCED_FACE($,(#82,#56),#264,.F.);
#273=ADVANCED_FACE($,(#83,#57),#48,.F.);
#274=ADVANCED_FACE($,(#84,#58),#265,.T.);
#275=ADVANCED_FACE($,(#59,#60),#40,.T.);
#276=ADVANCED_FACE($,(#85,#61),#49,.T.);
#277=ADVANCED_FACE($,(#86,#62),#266,.T.);
#278=ADVANCED_FACE($,(#87,#63),#50,.T.);
#279=ADVANCED_FACE($,(#64,#65),#41,.T.);
#280=ADVANCED_FACE($,(#88,#66),#42,.T.);
#281=ADVANCED_FACE($,(#89,#67),#51,.T.);
#282=ADVANCED_FACE($,(#90),#43,.T.);
#283=ADVANCED_FACE($,(#91,#68),#267,.F.);
#284=ADVANCED_FACE($,(#92,#69),#44,.T.);
#285=ADVANCED_FACE($,(#93,#70),#52,.F.);
#286=ADVANCED_FACE($,(#94,#71),#268,.F.);
#287=ADVANCED_FACE($,(#95,#72),#45,.F.);
#288=ADVANCED_FACE($,(#96,#73),#53,.F.);
#289=ADVANCED_FACE($,(#97,#74),#269,.T.);
#290=ADVANCED_FACE($,(#98,#75),#54,.T.);
#291=ADVANCED_FACE($,(#99,#76),#270,.T.);
#292=ADVANCED_FACE($,(#100,#77),#46,.F.);
#293=ADVANCED_FACE($,(#78,#79),#47,.F.);
#294=ADVANCED_FACE($,(#101,#80),#55,.F.);
#295=CLOSED_SHELL($,(#271,#272,#273,#274,#275,#276,#277,#278,#279,#280,
#281,#282));
#296=CLOSED_SHELL($,(#283,#284,#285,#286,#287,#288,#289,#290,#291,#292,
#293,#294));
#297=MANIFOLD_SOLID_BREP('T\X2\011B\X0\leso1',#295);
#298=MANIFOLD_SOLID_BREP('T\X2\011B\X0\leso1',#296);
#299=AXIS2_PLACEMENT_3D('placement',#458,#352,#353);
#300=AXIS2_PLACEMENT_3D($,#459,#354,#355);
#301=AXIS2_PLACEMENT_3D($,#461,#356,#357);
#302=AXIS2_PLACEMENT_3D($,#462,#358,#359);
#303=AXIS2_PLACEMENT_3D($,#464,#360,#361);
#304=AXIS2_PLACEMENT_3D($,#466,#362,#363);
#305=AXIS2_PLACEMENT_3D($,#467,#364,#365);
#306=AXIS2_PLACEMENT_3D($,#468,#366,#367);
#307=AXIS2_PLACEMENT_3D($,#470,#368,#369);
#308=AXIS2_PLACEMENT_3D($,#472,#370,#371);
#309=AXIS2_PLACEMENT_3D($,#473,#372,#373);
#310=AXIS2_PLACEMENT_3D($,#475,#374,#375);
#311=AXIS2_PLACEMENT_3D($,#476,#376,#377);
#312=AXIS2_PLACEMENT_3D($,#478,#378,#379);
#313=AXIS2_PLACEMENT_3D($,#479,#380,#381);
#314=AXIS2_PLACEMENT_3D($,#481,#382,#383);
#315=AXIS2_PLACEMENT_3D($,#483,#384,#385);
#316=AXIS2_PLACEMENT_3D($,#484,#386,#387);
#317=AXIS2_PLACEMENT_3D($,#485,#388,#389);
#318=AXIS2_PLACEMENT_3D($,#486,#390,#391);
#319=AXIS2_PLACEMENT_3D($,#488,#392,#393);
#320=AXIS2_PLACEMENT_3D($,#489,#394,#395);
#321=AXIS2_PLACEMENT_3D($,#491,#396,#397);
#322=AXIS2_PLACEMENT_3D($,#492,#398,#399);
#323=AXIS2_PLACEMENT_3D('placement',#493,#400,#401);
#324=AXIS2_PLACEMENT_3D($,#494,#402,#403);
#325=AXIS2_PLACEMENT_3D($,#496,#404,#405);
#326=AXIS2_PLACEMENT_3D($,#498,#406,#407);
#327=AXIS2_PLACEMENT_3D($,#499,#408,#409);
#328=AXIS2_PLACEMENT_3D($,#501,#410,#411);
#329=AXIS2_PLACEMENT_3D($,#502,#412,#413);
#330=AXIS2_PLACEMENT_3D($,#504,#414,#415);
#331=AXIS2_PLACEMENT_3D($,#505,#416,#417);
#332=AXIS2_PLACEMENT_3D($,#507,#418,#419);
#333=AXIS2_PLACEMENT_3D($,#509,#420,#421);
#334=AXIS2_PLACEMENT_3D($,#510,#422,#423);
#335=AXIS2_PLACEMENT_3D($,#512,#424,#425);
#336=AXIS2_PLACEMENT_3D($,#513,#426,#427);
#337=AXIS2_PLACEMENT_3D($,#515,#428,#429);
#338=AXIS2_PLACEMENT_3D($,#516,#430,#431);
#339=AXIS2_PLACEMENT_3D($,#518,#432,#433);
#340=AXIS2_PLACEMENT_3D($,#519,#434,#435);
#341=AXIS2_PLACEMENT_3D($,#521,#436,#437);
#342=AXIS2_PLACEMENT_3D($,#522,#438,#439);
#343=AXIS2_PLACEMENT_3D($,#523,#440,#441);
#344=AXIS2_PLACEMENT_3D($,#525,#442,#443);
#345=AXIS2_PLACEMENT_3D($,#526,#444,#445);
#346=AXIS2_PLACEMENT_3D($,#528,#446,#447);
#347=AXIS2_PLACEMENT_3D($,#529,#448,#449);
#348=AXIS2_PLACEMENT_3D('placement',#530,#450,#451);
#349=AXIS2_PLACEMENT_3D($,#531,#452,#453);
#350=AXIS2_PLACEMENT_3D($,#532,#454,#455);
#351=AXIS2_PLACEMENT_3D($,#533,#456,#457);
#352=DIRECTION('axis',(0.,0.,1.));
#353=DIRECTION('refdir',(1.,0.,0.));
#354=DIRECTION('center_axis',(-1.,-1.84528837671331E-016,0.));
#355=DIRECTION('ref_axis',(1.84528837671331E-016,-1.,0.));
#356=DIRECTION('center_axis',(-1.,-1.84528837671331E-016,0.));
#357=DIRECTION('ref_axis',(1.84528837671331E-016,-1.,0.));
#358=DIRECTION('center_axis',(-1.,-1.84528837671331E-016,0.));
#359=DIRECTION('ref_axis',(1.84528837671331E-016,-1.,0.));
#360=DIRECTION('center_axis',(1.,1.84528837671331E-016,0.));
#361=DIRECTION('ref_axis',(1.84528837671331E-016,-1.,0.));
#362=DIRECTION('center_axis',(-1.,-1.84528837671331E-016,0.));
#363=DIRECTION('ref_axis',(1.84528837671331E-016,-1.,0.));
#364=DIRECTION('center_axis',(-1.,-1.84528837671331E-016,0.));
#365=DIRECTION('ref_axis',(1.84528837671331E-016,-1.,0.));
#366=DIRECTION('center_axis',(1.,1.84528837671331E-016,0.));
#367=DIRECTION('ref_axis',(-2.96718660269299E-015,-1.,0.));
#368=DIRECTION('center_axis',(1.,1.84528837671331E-016,0.));
#369=DIRECTION('ref_axis',(1.84528837671331E-016,-1.,0.));
#370=DIRECTION('center_axis',(-1.,-1.84528837671331E-016,0.));
#371=DIRECTION('ref_axis',(-6.0447440326958E-015,-1.,0.));
#372=DIRECTION('center_axis',(-1.,-1.84528837671331E-016,0.));
#373=DIRECTION('ref_axis',(0.,0.,1.));
#374=DIRECTION('center_axis',(1.,1.84528837671331E-016,0.));
#375=DIRECTION('ref_axis',(6.0447440326958E-015,1.,0.));
#376=DIRECTION('center_axis',(1.,1.84528837671331E-016,0.));
#377=DIRECTION('ref_axis',(6.0447440326958E-015,1.,0.));
#378=DIRECTION('center_axis',(1.,1.84528837671331E-016,0.));
#379=DIRECTION('ref_axis',(6.0447440326958E-015,1.,0.));
#380=DIRECTION('center_axis',(1.,1.84528837671331E-016,0.));
#381=DIRECTION('ref_axis',(-3.15258162859678E-015,-1.,0.));
#382=DIRECTION('center_axis',(1.,1.84528837671331E-016,0.));
#383=DIRECTION('ref_axis',(1.84528837671331E-016,-1.,0.));
#384=DIRECTION('center_axis',(-1.,-1.84528837671331E-016,0.));
#385=DIRECTION('ref_axis',(-6.0447440326958E-015,-1.,0.));
#386=DIRECTION('center_axis',(1.,1.84528837671331E-016,0.));
#387=DIRECTION('ref_axis',(6.0447440326958E-015,1.,0.));
#388=DIRECTION('center_axis',(-1.,-1.84528837671331E-016,0.));
#389=DIRECTION('ref_axis',(0.,0.,1.));
#390=DIRECTION('center_axis',(-1.,-1.84528837671331E-016,0.));
#391=DIRECTION('ref_axis',(0.,0.,1.));
#392=DIRECTION('center_axis',(1.,1.84528837671331E-016,0.));
#393=DIRECTION('ref_axis',(6.0447440326958E-015,1.,0.));
#394=DIRECTION('center_axis',(1.,1.84528837671331E-016,0.));
#395=DIRECTION('ref_axis',(6.0447440326958E-015,1.,0.));
#396=DIRECTION('center_axis',(1.,1.84528837671331E-016,0.));
#397=DIRECTION('ref_axis',(6.0447440326958E-015,1.,0.));
#398=DIRECTION('center_axis',(1.,1.84528837671331E-016,0.));
#399=DIRECTION('ref_axis',(0.,0.,-1.));
#400=DIRECTION('axis',(0.,0.,1.));
#401=DIRECTION('refdir',(1.,0.,0.));
#402=DIRECTION('center_axis',(0.,0.,-1.));
#403=DIRECTION('ref_axis',(0.,1.,0.));
#404=DIRECTION('center_axis',(0.,0.,1.));
#405=DIRECTION('ref_axis',(0.,1.,0.));
#406=DIRECTION('center_axis',(0.,0.,-1.));
#407=DIRECTION('ref_axis',(0.,1.,0.));
#408=DIRECTION('center_axis',(0.,0.,-1.));
#409=DIRECTION('ref_axis',(-1.,0.,0.));
#410=DIRECTION('center_axis',(0.,0.,1.));
#411=DIRECTION('ref_axis',(-1.,0.,0.));
#412=DIRECTION('center_axis',(0.,0.,-1.));
#413=DIRECTION('ref_axis',(0.,-1.,0.));
#414=DIRECTION('center_axis',(0.,0.,-1.));
#415=DIRECTION('ref_axis',(0.,-1.,0.));
#416=DIRECTION('center_axis',(0.,0.,1.));
#417=DIRECTION('ref_axis',(0.,1.,0.));
#418=DIRECTION('center_axis',(0.,0.,-1.));
#419=DIRECTION('ref_axis',(0.,1.,0.));
#420=DIRECTION('center_axis',(0.,0.,1.));
#421=DIRECTION('ref_axis',(0.,1.,0.));
#422=DIRECTION('center_axis',(0.,0.,-1.));
#423=DIRECTION('ref_axis',(-1.,0.,0.));
#424=DIRECTION('center_axis',(0.,0.,-1.));
#425=DIRECTION('ref_axis',(-1.,0.,0.));
#426=DIRECTION('center_axis',(0.,0.,-1.));
#427=DIRECTION('ref_axis',(0.,-1.,0.));
#428=DIRECTION('center_axis',(0.,0.,-1.));
#429=DIRECTION('ref_axis',(0.,-1.,0.));
#430=DIRECTION('center_axis',(0.,0.,1.));
#431=DIRECTION('ref_axis',(-1.,0.,0.));
#432=DIRECTION('center_axis',(0.,0.,-1.));
#433=DIRECTION('ref_axis',(-1.,0.,0.));
#434=DIRECTION('center_axis',(0.,0.,1.));
#435=DIRECTION('ref_axis',(-1.,0.,0.));
#436=DIRECTION('center_axis',(0.,0.,1.));
#437=DIRECTION('ref_axis',(-1.,0.,0.));
#438=DIRECTION('center_axis',(0.,0.,-1.));
#439=DIRECTION('ref_axis',(-1.,0.,0.));
#440=DIRECTION('center_axis',(0.,0.,1.));
#441=DIRECTION('ref_axis',(1.,0.,0.));
#442=DIRECTION('center_axis',(0.,0.,-1.));
#443=DIRECTION('ref_axis',(-1.,0.,0.));
#444=DIRECTION('center_axis',(0.,0.,-1.));
#445=DIRECTION('ref_axis',(-1.,0.,0.));
#446=DIRECTION('center_axis',(0.,0.,1.));
#447=DIRECTION('ref_axis',(-1.,0.,0.));
#448=DIRECTION('center_axis',(0.,0.,1.));
#449=DIRECTION('ref_axis',(-1.,0.,0.));
#450=DIRECTION('axis',(0.,0.,1.));
#451=DIRECTION('refdir',(1.,0.,0.));
#452=DIRECTION($,(0.,0.,1.));
#453=DIRECTION($,(1.,0.,0.));
#454=DIRECTION($,(0.,0.,-1.));
#455=DIRECTION($,(-1.,1.20894880653916E-014,0.));
#456=DIRECTION($,(-1.,6.0447440326958E-015,0.));
#457=DIRECTION($,(3.65389304208115E-029,6.0447440326958E-015,1.));
#458=CARTESIAN_POINT('',(0.,0.,0.));
#459=CARTESIAN_POINT('Origin',(-7.45965575238898,-1.36737160962509E-015,
0.));
#460=CARTESIAN_POINT('',(-7.7,-0.800000000000002,0.));
#461=CARTESIAN_POINT('Origin',(-7.7,-1.41172205427774E-015,0.));
#462=CARTESIAN_POINT('Origin',(-10.3288303120671,-1.89681705619864E-015,
0.));
#463=CARTESIAN_POINT('',(-11.,-1.575,0.));
#464=CARTESIAN_POINT('Origin',(-11.,-2.02066721859313E-015,0.));
#465=CARTESIAN_POINT('',(-9.65766062413412,-0.800000000000002,0.));
#466=CARTESIAN_POINT('Origin',(-9.65766062413412,-1.77296689380414E-015,
0.));
#467=CARTESIAN_POINT('Origin',(-9.35,-1.71619463643544E-015,0.));
#468=CARTESIAN_POINT('Origin',(0.0999999999999753,2.76028795586379E-017,
0.));
#469=CARTESIAN_POINT('',(-3.97271633319963E-017,8.3,1.0164568432923E-015));
#470=CARTESIAN_POINT('Origin',(1.49186218934005E-015,9.14999579150958E-018,
0.));
#471=CARTESIAN_POINT('',(0.2,8.5,-1.04094977927525E-015));
#472=CARTESIAN_POINT('Origin',(0.199999999999949,4.60557633257661E-017,
0.));
#473=CARTESIAN_POINT('Origin',(0.,8.,0.));
#474=CARTESIAN_POINT('',(0.,7.5,0.));
#475=CARTESIAN_POINT('Origin',(2.22044604925031E-015,9.14999579150976E-018,
0.));
#476=CARTESIAN_POINT('Origin',(4.,7.47265346476834E-016,0.));
#477=CARTESIAN_POINT('',(8.,8.5,0.));
#478=CARTESIAN_POINT('Origin',(8.,1.48538069716216E-015,0.));
#479=CARTESIAN_POINT('Origin',(-10.5,-1.92840279975747E-015,0.));
#480=CARTESIAN_POINT('',(-11.,6.5,7.95994129984545E-016));
#481=CARTESIAN_POINT('Origin',(-11.,-2.02066721859313E-015,0.));
#482=CARTESIAN_POINT('',(-10.,7.5,-9.18454765366783E-016));
#483=CARTESIAN_POINT('Origin',(-10.,-1.83613838092181E-015,0.));
#484=CARTESIAN_POINT('Origin',(-5.5,-1.00575861140081E-015,0.));
#485=CARTESIAN_POINT('Origin',(-11.,3.75,0.));
#486=CARTESIAN_POINT('Origin',(8.,15.75,0.));
#487=CARTESIAN_POINT('',(8.,23.,0.));
#488=CARTESIAN_POINT('Origin',(8.00000000000001,1.48538069716216E-015,0.));
#489=CARTESIAN_POINT('Origin',(13.,2.40802488551882E-015,0.));
#490=CARTESIAN_POINT('',(18.,23.,0.));
#491=CARTESIAN_POINT('Origin',(18.,3.33066907387547E-015,0.));
#492=CARTESIAN_POINT('Origin',(18.,11.5,0.));
#493=CARTESIAN_POINT('',(0.,0.,0.));
#494=CARTESIAN_POINT('Origin',(0.,0.,0.25));
#495=CARTESIAN_POINT('',(2.81668763803891E-015,-23.,0.5));
#496=CARTESIAN_POINT('Origin',(0.,0.,0.5));
#497=CARTESIAN_POINT('',(-2.87791997799628E-015,-23.5,0.));
#498=CARTESIAN_POINT('Origin',(0.,0.,0.));
#499=CARTESIAN_POINT('Origin',(0.,0.,0.));
#500=CARTESIAN_POINT('',(24.,2.93915231795365E-015,0.));
#501=CARTESIAN_POINT('Origin',(0.,0.,0.));
#502=CARTESIAN_POINT('Origin',(0.,0.,5.));
#503=CARTESIAN_POINT('',(0.,-23.,10.));
#504=CARTESIAN_POINT('Origin',(0.,0.,10.));
#505=CARTESIAN_POINT('Origin',(0.,0.,246.75));
#506=CARTESIAN_POINT('',(-2.81668763803892E-015,-23.0000000000001,246.5));
#507=CARTESIAN_POINT('Origin',(0.,0.,246.5));
#508=CARTESIAN_POINT('',(2.87791997799629E-015,-23.5000000000001,247.));
#509=CARTESIAN_POINT('Origin',(0.,0.,247.));
#510=CARTESIAN_POINT('Origin',(0.,0.,247.));
#511=CARTESIAN_POINT('',(24.,-2.93915231795365E-015,247.));
#512=CARTESIAN_POINT('Origin',(0.,0.,247.));
#513=CARTESIAN_POINT('Origin',(0.,0.,242.));
#514=CARTESIAN_POINT('',(0.,-23.0000000000001,237.));
#515=CARTESIAN_POINT('Origin',(0.,0.,237.));
#516=CARTESIAN_POINT('Origin',(0.,0.,0.5));
#517=CARTESIAN_POINT('',(25.,-3.06161699786838E-015,1.));
#518=CARTESIAN_POINT('Origin',(0.,0.,1.));
#519=CARTESIAN_POINT('Origin',(0.,0.,0.));
#520=CARTESIAN_POINT('',(25.,3.06161699786838E-015,246.));
#521=CARTESIAN_POINT('Origin',(0.,0.,246.));
#522=CARTESIAN_POINT('Origin',(0.,0.,246.5));
#523=CARTESIAN_POINT('Origin',(0.,-22.5,10.));
#524=CARTESIAN_POINT('',(0.,-22.,10.));
#525=CARTESIAN_POINT('Origin',(0.,0.,10.));
#526=CARTESIAN_POINT('Origin',(0.,-22.5,237.));
#527=CARTESIAN_POINT('',(0.,-22.,237.));
#528=CARTESIAN_POINT('Origin',(0.,0.,237.));
#529=CARTESIAN_POINT('Origin',(0.,0.,0.));
#530=CARTESIAN_POINT('',(0.,0.,0.));
#531=CARTESIAN_POINT($,(0.,0.,0.));
#532=CARTESIAN_POINT($,(263.,-1.589767680599E-012,-4.23404351870045E-043));
#533=CARTESIAN_POINT($,(255.,-1.42927366667503E-012,-4.6212701196993E-042));
#534=UNCERTAINTY_MEASURE_WITH_UNIT(LENGTH_MEASURE(0.01),#540,
'DISTANCE_ACCURACY_VALUE',
'Maximum model space distance between geometric entities at asserted c
onnectivities');
#535=UNCERTAINTY_MEASURE_WITH_UNIT(LENGTH_MEASURE(0.01),#540,
'DISTANCE_ACCURACY_VALUE',
'Maximum model space distance between geometric entities at asserted c
onnectivities');
#536=UNCERTAINTY_MEASURE_WITH_UNIT(LENGTH_MEASURE(0.01),#540,
'DISTANCE_ACCURACY_VALUE',
'Maximum model space distance between geometric entities at asserted c
onnectivities');
#537=(
GEOMETRIC_REPRESENTATION_CONTEXT(3)
GLOBAL_UNCERTAINTY_ASSIGNED_CONTEXT((#534))
GLOBAL_UNIT_ASSIGNED_CONTEXT((#540,#543,#541))
REPRESENTATION_CONTEXT('','3D')
);
#538=(
GEOMETRIC_REPRESENTATION_CONTEXT(3)
GLOBAL_UNCERTAINTY_ASSIGNED_CONTEXT((#535))
GLOBAL_UNIT_ASSIGNED_CONTEXT((#540,#543,#541))
REPRESENTATION_CONTEXT('','3D')
);
#539=(
GEOMETRIC_REPRESENTATION_CONTEXT(3)
GLOBAL_UNCERTAINTY_ASSIGNED_CONTEXT((#536))
GLOBAL_UNIT_ASSIGNED_CONTEXT((#540,#543,#541))
REPRESENTATION_CONTEXT('','3D')
);
#540=(
LENGTH_UNIT()
NAMED_UNIT(*)
SI_UNIT(.MILLI.,.METRE.)
);
#541=(
NAMED_UNIT(*)
SI_UNIT($,.STERADIAN.)
SOLID_ANGLE_UNIT()
);
#542=DIMENSIONAL_EXPONENTS(0.,0.,0.,0.,0.,0.,0.);
#543=(
CONVERSION_BASED_UNIT('degree',#545)
NAMED_UNIT(#542)
PLANE_ANGLE_UNIT()
);
#544=(
NAMED_UNIT(*)
PLANE_ANGLE_UNIT()
SI_UNIT($,.RADIAN.)
);
#545=PLANE_ANGLE_MEASURE_WITH_UNIT(PLANE_ANGLE_MEASURE(0.01745329252),#544);
#546=SHAPE_DEFINITION_REPRESENTATION(#549,#555);
#547=SHAPE_DEFINITION_REPRESENTATION(#550,#556);
#548=SHAPE_DEFINITION_REPRESENTATION(#551,#557);
#549=PRODUCT_DEFINITION_SHAPE('',$,#559);
#550=PRODUCT_DEFINITION_SHAPE('',$,#560);
#551=PRODUCT_DEFINITION_SHAPE('',$,#561);
#552=PRODUCT_DEFINITION_SHAPE($,$,#19);
#553=PRODUCT_DEFINITION_SHAPE($,$,#20);
#554=PRODUCT_DEFINITION_SHAPE($,$,#21);
#555=SHAPE_REPRESENTATION('',(#299),#537);
#556=SHAPE_REPRESENTATION('',(#323),#538);
#557=SHAPE_REPRESENTATION('',(#348,#349,#350,#351),#539);
#558=PRODUCT_DEFINITION_CONTEXT('3D Mechanical Parts',#566,'design');
#559=PRODUCT_DEFINITION('50-\X2\010D\X0\ep I','50-\X2\010D\X0\ep I',#562,
#558);
#560=PRODUCT_DEFINITION('Trubka_d50_001','Trubka_d50_001',#563,#558);
#561=PRODUCT_DEFINITION('904550','904550',#564,#558);
#562=PRODUCT_DEFINITION_FORMATION('',$,#568);
#563=PRODUCT_DEFINITION_FORMATION('',$,#569);
#564=PRODUCT_DEFINITION_FORMATION('',$,#570);
#565=APPLICATION_PROTOCOL_DEFINITION('international standard',
'automotive_design',2009,#566);
#566=APPLICATION_CONTEXT(
'Core Data for Automotive Mechanical Design Process');
#567=PRODUCT_CONTEXT('3D Mechanical Parts',#566,'mechanical');
#568=PRODUCT('50-\X2\010D\X0\ep I','50-\X2\010D\X0\ep I',$,(#567));
#569=PRODUCT('Trubka_d50_001','Trubka_d50_001',$,(#567));
#570=PRODUCT('904550','904550',$,(#567));
#571=PRESENTATION_STYLE_ASSIGNMENT((#572));
#572=SURFACE_STYLE_USAGE(.BOTH.,#573);
#573=SURFACE_SIDE_STYLE($,(#574));
#574=SURFACE_STYLE_FILL_AREA(#575);
#575=FILL_AREA_STYLE($,(#576));
#576=FILL_AREA_STYLE_COLOUR($,#577);
#577=COLOUR_RGB('',0.63921568627451,0.63921568627451,0.686274509803922);
ENDSEC;
END-ISO-10303-21;
