ISO-10303-21;
HEADER;
/* Generated by software containing ST-Developer
 * from STEP Tools, Inc. (www.steptools.com) 
 */

FILE_DESCRIPTION(
/* description */ (''),
/* implementation_level */ '2;1');

FILE_NAME(
/* name */ 'D:\\VaultPracovni\\Zak\X\E1zky\\2013\\AlutecKK\\stp\\90909
5.stp',
/* time_stamp */ '2013-12-13T15:31:15+01:00',
/* author */ ('AlutecKK'),
/* organization */ (''),
/* preprocessor_version */ 'ST-DEVELOPER v15.2',
/* originating_system */ 'Autodesk Inventor 2014',
/* authorisation */ '');

FILE_SCHEMA (('AUTOMOTIVE_DESIGN { 1 0 10303 214 3 1 1 }'));
ENDSEC;

DATA;
#10=ITEM_DEFINED_TRANSFORMATION($,$,#266,#310);
#11=ITEM_DEFINED_TRANSFORMATION($,$,#291,#311);
#12=ITEM_DEFINED_TRANSFORMATION($,$,#291,#312);
#13=(
REPRESENTATION_RELATIONSHIP($,$,#495,#497)
REPRESENTATION_RELATIONSHIP_WITH_TRANSFORMATION(#10)
SHAPE_REPRESENTATION_RELATIONSHIP()
);
#14=(
REPRESENTATION_RELATIONSHIP($,$,#496,#497)
REPRESENTATION_RELATIONSHIP_WITH_TRANSFORMATION(#11)
SHAPE_REPRESENTATION_RELATIONSHIP()
);
#15=(
REPRESENTATION_RELATIONSHIP($,$,#496,#497)
REPRESENTATION_RELATIONSHIP_WITH_TRANSFORMATION(#12)
SHAPE_REPRESENTATION_RELATIONSHIP()
);
#16=CONTEXT_DEPENDENT_SHAPE_REPRESENTATION(#13,#492);
#17=CONTEXT_DEPENDENT_SHAPE_REPRESENTATION(#14,#493);
#18=CONTEXT_DEPENDENT_SHAPE_REPRESENTATION(#15,#494);
#19=NEXT_ASSEMBLY_USAGE_OCCURRENCE('Trubka_d96_001:1',$,$,#501,#499,$);
#20=NEXT_ASSEMBLY_USAGE_OCCURRENCE('96-\X2\010D\X0\ep I:1',$,$,#501,#500,
$);
#21=NEXT_ASSEMBLY_USAGE_OCCURRENCE('96-\X2\010D\X0\ep I:2',$,$,#501,#500,
$);
#22=SHAPE_REPRESENTATION_RELATIONSHIP('SRR','None',#495,#24);
#23=SHAPE_REPRESENTATION_RELATIONSHIP('SRR','None',#496,#25);
#24=ADVANCED_BREP_SHAPE_REPRESENTATION($,(#264),#477);
#25=ADVANCED_BREP_SHAPE_REPRESENTATION($,(#265),#478);
#26=CYLINDRICAL_SURFACE($,#272,45.);
#27=CYLINDRICAL_SURFACE($,#279,45.0000000000001);
#28=CYLINDRICAL_SURFACE($,#283,48.);
#29=CYLINDRICAL_SURFACE($,#290,44.5);
#30=CYLINDRICAL_SURFACE($,#297,12.5);
#31=CYLINDRICAL_SURFACE($,#302,10.);
#32=CYLINDRICAL_SURFACE($,#306,45.);
#33=PLANE($,#270);
#34=PLANE($,#277);
#35=PLANE($,#286);
#36=PLANE($,#288);
#37=PLANE($,#295);
#38=PLANE($,#303);
#39=PLANE($,#304);
#40=PLANE($,#308);
#41=FACE_BOUND($,#82,.T.);
#42=FACE_BOUND($,#84,.T.);
#43=FACE_BOUND($,#86,.T.);
#44=FACE_BOUND($,#88,.T.);
#45=FACE_BOUND($,#90,.T.);
#46=FACE_BOUND($,#92,.T.);
#47=FACE_BOUND($,#94,.T.);
#48=FACE_BOUND($,#96,.T.);
#49=FACE_BOUND($,#98,.T.);
#50=FACE_BOUND($,#100,.T.);
#51=FACE_BOUND($,#101,.T.);
#52=FACE_BOUND($,#102,.T.);
#53=FACE_BOUND($,#104,.T.);
#54=FACE_BOUND($,#106,.T.);
#55=FACE_BOUND($,#107,.T.);
#56=FACE_BOUND($,#108,.T.);
#57=FACE_BOUND($,#110,.T.);
#58=FACE_BOUND($,#112,.T.);
#59=FACE_BOUND($,#114,.T.);
#60=FACE_BOUND($,#117,.T.);
#61=FACE_BOUND($,#119,.T.);
#62=FACE_OUTER_BOUND($,#81,.T.);
#63=FACE_OUTER_BOUND($,#83,.T.);
#64=FACE_OUTER_BOUND($,#85,.T.);
#65=FACE_OUTER_BOUND($,#87,.T.);
#66=FACE_OUTER_BOUND($,#89,.T.);
#67=FACE_OUTER_BOUND($,#91,.T.);
#68=FACE_OUTER_BOUND($,#93,.T.);
#69=FACE_OUTER_BOUND($,#95,.T.);
#70=FACE_OUTER_BOUND($,#97,.T.);
#71=FACE_OUTER_BOUND($,#99,.T.);
#72=FACE_OUTER_BOUND($,#103,.T.);
#73=FACE_OUTER_BOUND($,#105,.T.);
#74=FACE_OUTER_BOUND($,#109,.T.);
#75=FACE_OUTER_BOUND($,#111,.T.);
#76=FACE_OUTER_BOUND($,#113,.T.);
#77=FACE_OUTER_BOUND($,#115,.T.);
#78=FACE_OUTER_BOUND($,#116,.T.);
#79=FACE_OUTER_BOUND($,#118,.T.);
#80=FACE_OUTER_BOUND($,#120,.T.);
#81=EDGE_LOOP($,(#181));
#82=EDGE_LOOP($,(#182));
#83=EDGE_LOOP($,(#183));
#84=EDGE_LOOP($,(#184));
#85=EDGE_LOOP($,(#185));
#86=EDGE_LOOP($,(#186));
#87=EDGE_LOOP($,(#187));
#88=EDGE_LOOP($,(#188));
#89=EDGE_LOOP($,(#189));
#90=EDGE_LOOP($,(#190));
#91=EDGE_LOOP($,(#191));
#92=EDGE_LOOP($,(#192));
#93=EDGE_LOOP($,(#193));
#94=EDGE_LOOP($,(#194));
#95=EDGE_LOOP($,(#195));
#96=EDGE_LOOP($,(#196));
#97=EDGE_LOOP($,(#197));
#98=EDGE_LOOP($,(#198));
#99=EDGE_LOOP($,(#199));
#100=EDGE_LOOP($,(#200));
#101=EDGE_LOOP($,(#201));
#102=EDGE_LOOP($,(#202));
#103=EDGE_LOOP($,(#203));
#104=EDGE_LOOP($,(#204));
#105=EDGE_LOOP($,(#205));
#106=EDGE_LOOP($,(#206));
#107=EDGE_LOOP($,(#207));
#108=EDGE_LOOP($,(#208));
#109=EDGE_LOOP($,(#209));
#110=EDGE_LOOP($,(#210));
#111=EDGE_LOOP($,(#211));
#112=EDGE_LOOP($,(#212));
#113=EDGE_LOOP($,(#213));
#114=EDGE_LOOP($,(#214));
#115=EDGE_LOOP($,(#215));
#116=EDGE_LOOP($,(#216));
#117=EDGE_LOOP($,(#217));
#118=EDGE_LOOP($,(#218));
#119=EDGE_LOOP($,(#219));
#120=EDGE_LOOP($,(#220));
#121=CIRCLE($,#268,45.);
#122=CIRCLE($,#269,45.5);
#123=CIRCLE($,#271,47.);
#124=CIRCLE($,#273,45.);
#125=CIRCLE($,#275,45.0000000000001);
#126=CIRCLE($,#276,45.5000000000001);
#127=CIRCLE($,#278,47.);
#128=CIRCLE($,#280,45.0000000000001);
#129=CIRCLE($,#282,48.);
#130=CIRCLE($,#284,48.);
#131=CIRCLE($,#287,44.5);
#132=CIRCLE($,#289,44.5);
#133=CIRCLE($,#293,12.);
#134=CIRCLE($,#294,12.5);
#135=CIRCLE($,#296,10.);
#136=CIRCLE($,#298,12.5);
#137=CIRCLE($,#300,9.);
#138=CIRCLE($,#301,10.);
#139=CIRCLE($,#305,45.);
#140=CIRCLE($,#307,45.);
#141=VERTEX_POINT($,#409);
#142=VERTEX_POINT($,#411);
#143=VERTEX_POINT($,#414);
#144=VERTEX_POINT($,#417);
#145=VERTEX_POINT($,#420);
#146=VERTEX_POINT($,#422);
#147=VERTEX_POINT($,#425);
#148=VERTEX_POINT($,#428);
#149=VERTEX_POINT($,#431);
#150=VERTEX_POINT($,#434);
#151=VERTEX_POINT($,#438);
#152=VERTEX_POINT($,#441);
#153=VERTEX_POINT($,#446);
#154=VERTEX_POINT($,#448);
#155=VERTEX_POINT($,#451);
#156=VERTEX_POINT($,#454);
#157=VERTEX_POINT($,#457);
#158=VERTEX_POINT($,#459);
#159=VERTEX_POINT($,#464);
#160=VERTEX_POINT($,#467);
#161=EDGE_CURVE($,#141,#141,#121,.T.);
#162=EDGE_CURVE($,#142,#142,#122,.T.);
#163=EDGE_CURVE($,#143,#143,#123,.T.);
#164=EDGE_CURVE($,#144,#144,#124,.T.);
#165=EDGE_CURVE($,#145,#145,#125,.T.);
#166=EDGE_CURVE($,#146,#146,#126,.T.);
#167=EDGE_CURVE($,#147,#147,#127,.T.);
#168=EDGE_CURVE($,#148,#148,#128,.T.);
#169=EDGE_CURVE($,#149,#149,#129,.T.);
#170=EDGE_CURVE($,#150,#150,#130,.T.);
#171=EDGE_CURVE($,#151,#151,#131,.T.);
#172=EDGE_CURVE($,#152,#152,#132,.T.);
#173=EDGE_CURVE($,#153,#153,#133,.T.);
#174=EDGE_CURVE($,#154,#154,#134,.T.);
#175=EDGE_CURVE($,#155,#155,#135,.T.);
#176=EDGE_CURVE($,#156,#156,#136,.T.);
#177=EDGE_CURVE($,#157,#157,#137,.T.);
#178=EDGE_CURVE($,#158,#158,#138,.T.);
#179=EDGE_CURVE($,#159,#159,#139,.T.);
#180=EDGE_CURVE($,#160,#160,#140,.T.);
#181=ORIENTED_EDGE($,*,*,#161,.T.);
#182=ORIENTED_EDGE($,*,*,#162,.T.);
#183=ORIENTED_EDGE($,*,*,#163,.F.);
#184=ORIENTED_EDGE($,*,*,#162,.F.);
#185=ORIENTED_EDGE($,*,*,#164,.F.);
#186=ORIENTED_EDGE($,*,*,#161,.F.);
#187=ORIENTED_EDGE($,*,*,#165,.T.);
#188=ORIENTED_EDGE($,*,*,#166,.T.);
#189=ORIENTED_EDGE($,*,*,#167,.F.);
#190=ORIENTED_EDGE($,*,*,#166,.F.);
#191=ORIENTED_EDGE($,*,*,#168,.T.);
#192=ORIENTED_EDGE($,*,*,#165,.F.);
#193=ORIENTED_EDGE($,*,*,#169,.T.);
#194=ORIENTED_EDGE($,*,*,#163,.T.);
#195=ORIENTED_EDGE($,*,*,#170,.F.);
#196=ORIENTED_EDGE($,*,*,#169,.F.);
#197=ORIENTED_EDGE($,*,*,#167,.T.);
#198=ORIENTED_EDGE($,*,*,#170,.T.);
#199=ORIENTED_EDGE($,*,*,#164,.T.);
#200=ORIENTED_EDGE($,*,*,#171,.F.);
#201=ORIENTED_EDGE($,*,*,#172,.F.);
#202=ORIENTED_EDGE($,*,*,#168,.F.);
#203=ORIENTED_EDGE($,*,*,#171,.T.);
#204=ORIENTED_EDGE($,*,*,#172,.T.);
#205=ORIENTED_EDGE($,*,*,#173,.T.);
#206=ORIENTED_EDGE($,*,*,#174,.T.);
#207=ORIENTED_EDGE($,*,*,#175,.T.);
#208=ORIENTED_EDGE($,*,*,#173,.F.);
#209=ORIENTED_EDGE($,*,*,#176,.F.);
#210=ORIENTED_EDGE($,*,*,#174,.F.);
#211=ORIENTED_EDGE($,*,*,#177,.T.);
#212=ORIENTED_EDGE($,*,*,#178,.T.);
#213=ORIENTED_EDGE($,*,*,#175,.F.);
#214=ORIENTED_EDGE($,*,*,#178,.F.);
#215=ORIENTED_EDGE($,*,*,#177,.F.);
#216=ORIENTED_EDGE($,*,*,#179,.F.);
#217=ORIENTED_EDGE($,*,*,#176,.T.);
#218=ORIENTED_EDGE($,*,*,#180,.F.);
#219=ORIENTED_EDGE($,*,*,#179,.T.);
#220=ORIENTED_EDGE($,*,*,#180,.T.);
#221=CONICAL_SURFACE($,#267,45.25,44.9999999999999);
#222=CONICAL_SURFACE($,#274,45.2500000000001,44.9999999999995);
#223=CONICAL_SURFACE($,#281,47.5,44.9999999999999);
#224=CONICAL_SURFACE($,#285,47.5,44.9999999999995);
#225=CONICAL_SURFACE($,#292,12.25,45.);
#226=CONICAL_SURFACE($,#299,9.5,44.9999999999999);
#227=STYLED_ITEM($,(#511),#241);
#228=STYLED_ITEM($,(#511),#242);
#229=STYLED_ITEM($,(#511),#243);
#230=STYLED_ITEM($,(#511),#244);
#231=STYLED_ITEM($,(#511),#245);
#232=STYLED_ITEM($,(#511),#246);
#233=STYLED_ITEM($,(#511),#247);
#234=STYLED_ITEM($,(#511),#248);
#235=STYLED_ITEM($,(#511),#249);
#236=STYLED_ITEM($,(#511),#250);
#237=STYLED_ITEM($,(#511),#251);
#238=STYLED_ITEM($,(#511),#252);
#239=STYLED_ITEM($,(#511),#264);
#240=STYLED_ITEM($,(#511),#265);
#241=ADVANCED_FACE($,(#62,#41),#221,.F.);
#242=ADVANCED_FACE($,(#63,#42),#33,.T.);
#243=ADVANCED_FACE($,(#64,#43),#26,.F.);
#244=ADVANCED_FACE($,(#65,#44),#222,.F.);
#245=ADVANCED_FACE($,(#66,#45),#34,.F.);
#246=ADVANCED_FACE($,(#67,#46),#27,.F.);
#247=ADVANCED_FACE($,(#68,#47),#223,.T.);
#248=ADVANCED_FACE($,(#69,#48),#28,.T.);
#249=ADVANCED_FACE($,(#70,#49),#224,.T.);
#250=ADVANCED_FACE($,(#71,#50),#35,.F.);
#251=ADVANCED_FACE($,(#51,#52),#36,.F.);
#252=ADVANCED_FACE($,(#72,#53),#29,.F.);
#253=ADVANCED_FACE($,(#73,#54),#225,.T.);
#254=ADVANCED_FACE($,(#55,#56),#37,.T.);
#255=ADVANCED_FACE($,(#74,#57),#30,.T.);
#256=ADVANCED_FACE($,(#75,#58),#226,.T.);
#257=ADVANCED_FACE($,(#76,#59),#31,.T.);
#258=ADVANCED_FACE($,(#77),#38,.T.);
#259=ADVANCED_FACE($,(#78,#60),#39,.T.);
#260=ADVANCED_FACE($,(#79,#61),#32,.T.);
#261=ADVANCED_FACE($,(#80),#40,.T.);
#262=CLOSED_SHELL($,(#241,#242,#243,#244,#245,#246,#247,#248,#249,#250,
#251,#252));
#263=CLOSED_SHELL($,(#253,#254,#255,#256,#257,#258,#259,#260,#261));
#264=MANIFOLD_SOLID_BREP('T\X2\011B\X0\leso1',#262);
#265=MANIFOLD_SOLID_BREP('T\X2\011B\X0\leso1',#263);
#266=AXIS2_PLACEMENT_3D('placement',#407,#313,#314);
#267=AXIS2_PLACEMENT_3D($,#408,#315,#316);
#268=AXIS2_PLACEMENT_3D($,#410,#317,#318);
#269=AXIS2_PLACEMENT_3D($,#412,#319,#320);
#270=AXIS2_PLACEMENT_3D($,#413,#321,#322);
#271=AXIS2_PLACEMENT_3D($,#415,#323,#324);
#272=AXIS2_PLACEMENT_3D($,#416,#325,#326);
#273=AXIS2_PLACEMENT_3D($,#418,#327,#328);
#274=AXIS2_PLACEMENT_3D($,#419,#329,#330);
#275=AXIS2_PLACEMENT_3D($,#421,#331,#332);
#276=AXIS2_PLACEMENT_3D($,#423,#333,#334);
#277=AXIS2_PLACEMENT_3D($,#424,#335,#336);
#278=AXIS2_PLACEMENT_3D($,#426,#337,#338);
#279=AXIS2_PLACEMENT_3D($,#427,#339,#340);
#280=AXIS2_PLACEMENT_3D($,#429,#341,#342);
#281=AXIS2_PLACEMENT_3D($,#430,#343,#344);
#282=AXIS2_PLACEMENT_3D($,#432,#345,#346);
#283=AXIS2_PLACEMENT_3D($,#433,#347,#348);
#284=AXIS2_PLACEMENT_3D($,#435,#349,#350);
#285=AXIS2_PLACEMENT_3D($,#436,#351,#352);
#286=AXIS2_PLACEMENT_3D($,#437,#353,#354);
#287=AXIS2_PLACEMENT_3D($,#439,#355,#356);
#288=AXIS2_PLACEMENT_3D($,#440,#357,#358);
#289=AXIS2_PLACEMENT_3D($,#442,#359,#360);
#290=AXIS2_PLACEMENT_3D($,#443,#361,#362);
#291=AXIS2_PLACEMENT_3D('placement',#444,#363,#364);
#292=AXIS2_PLACEMENT_3D($,#445,#365,#366);
#293=AXIS2_PLACEMENT_3D($,#447,#367,#368);
#294=AXIS2_PLACEMENT_3D($,#449,#369,#370);
#295=AXIS2_PLACEMENT_3D($,#450,#371,#372);
#296=AXIS2_PLACEMENT_3D($,#452,#373,#374);
#297=AXIS2_PLACEMENT_3D($,#453,#375,#376);
#298=AXIS2_PLACEMENT_3D($,#455,#377,#378);
#299=AXIS2_PLACEMENT_3D($,#456,#379,#380);
#300=AXIS2_PLACEMENT_3D($,#458,#381,#382);
#301=AXIS2_PLACEMENT_3D($,#460,#383,#384);
#302=AXIS2_PLACEMENT_3D($,#461,#385,#386);
#303=AXIS2_PLACEMENT_3D($,#462,#387,#388);
#304=AXIS2_PLACEMENT_3D($,#463,#389,#390);
#305=AXIS2_PLACEMENT_3D($,#465,#391,#392);
#306=AXIS2_PLACEMENT_3D($,#466,#393,#394);
#307=AXIS2_PLACEMENT_3D($,#468,#395,#396);
#308=AXIS2_PLACEMENT_3D($,#469,#397,#398);
#309=AXIS2_PLACEMENT_3D('placement',#470,#399,#400);
#310=AXIS2_PLACEMENT_3D($,#471,#401,#402);
#311=AXIS2_PLACEMENT_3D($,#472,#403,#404);
#312=AXIS2_PLACEMENT_3D($,#473,#405,#406);
#313=DIRECTION('axis',(0.,0.,1.));
#314=DIRECTION('refdir',(1.,0.,0.));
#315=DIRECTION('center_axis',(0.,0.,-1.));
#316=DIRECTION('ref_axis',(0.,1.,0.));
#317=DIRECTION('center_axis',(0.,0.,1.));
#318=DIRECTION('ref_axis',(0.,1.,0.));
#319=DIRECTION('center_axis',(0.,0.,-1.));
#320=DIRECTION('ref_axis',(0.,1.,0.));
#321=DIRECTION('center_axis',(0.,0.,-1.));
#322=DIRECTION('ref_axis',(-1.,0.,0.));
#323=DIRECTION('center_axis',(0.,0.,1.));
#324=DIRECTION('ref_axis',(-1.,0.,0.));
#325=DIRECTION('center_axis',(0.,0.,-1.));
#326=DIRECTION('ref_axis',(0.,-1.,0.));
#327=DIRECTION('center_axis',(0.,0.,-1.));
#328=DIRECTION('ref_axis',(0.,-1.,0.));
#329=DIRECTION('center_axis',(0.,0.,1.));
#330=DIRECTION('ref_axis',(0.,1.,0.));
#331=DIRECTION('center_axis',(0.,0.,-1.));
#332=DIRECTION('ref_axis',(0.,1.,0.));
#333=DIRECTION('center_axis',(0.,0.,1.));
#334=DIRECTION('ref_axis',(0.,1.,0.));
#335=DIRECTION('center_axis',(0.,0.,-1.));
#336=DIRECTION('ref_axis',(-1.,0.,0.));
#337=DIRECTION('center_axis',(0.,0.,-1.));
#338=DIRECTION('ref_axis',(-1.,0.,0.));
#339=DIRECTION('center_axis',(0.,0.,-1.));
#340=DIRECTION('ref_axis',(0.,-1.,0.));
#341=DIRECTION('center_axis',(0.,0.,-1.));
#342=DIRECTION('ref_axis',(0.,-1.,0.));
#343=DIRECTION('center_axis',(0.,0.,1.));
#344=DIRECTION('ref_axis',(-1.,0.,0.));
#345=DIRECTION('center_axis',(0.,0.,-1.));
#346=DIRECTION('ref_axis',(-1.,0.,0.));
#347=DIRECTION('center_axis',(0.,0.,1.));
#348=DIRECTION('ref_axis',(-1.,0.,0.));
#349=DIRECTION('center_axis',(0.,0.,1.));
#350=DIRECTION('ref_axis',(-1.,0.,0.));
#351=DIRECTION('center_axis',(0.,0.,-1.));
#352=DIRECTION('ref_axis',(-1.,0.,0.));
#353=DIRECTION('center_axis',(0.,0.,1.));
#354=DIRECTION('ref_axis',(1.,0.,0.));
#355=DIRECTION('center_axis',(0.,0.,-1.));
#356=DIRECTION('ref_axis',(-1.,0.,0.));
#357=DIRECTION('center_axis',(0.,0.,-1.));
#358=DIRECTION('ref_axis',(-1.,0.,0.));
#359=DIRECTION('center_axis',(0.,0.,1.));
#360=DIRECTION('ref_axis',(-1.,0.,0.));
#361=DIRECTION('center_axis',(0.,0.,1.));
#362=DIRECTION('ref_axis',(-1.,0.,0.));
#363=DIRECTION('axis',(0.,0.,1.));
#364=DIRECTION('refdir',(1.,0.,0.));
#365=DIRECTION('center_axis',(1.,1.79811548120771E-016,0.));
#366=DIRECTION('ref_axis',(-9.20160458972168E-014,-1.,0.));
#367=DIRECTION('center_axis',(1.,1.79811548120771E-016,0.));
#368=DIRECTION('ref_axis',(1.79811548120764E-016,-1.,0.));
#369=DIRECTION('center_axis',(-1.,-1.79811548120771E-016,0.));
#370=DIRECTION('ref_axis',(-1.80524069044741E-013,-1.,0.));
#371=DIRECTION('center_axis',(-1.,-1.79811548120771E-016,0.));
#372=DIRECTION('ref_axis',(0.,0.,1.));
#373=DIRECTION('center_axis',(1.,1.79811548120771E-016,0.));
#374=DIRECTION('ref_axis',(1.80524069044741E-013,1.,0.));
#375=DIRECTION('center_axis',(1.,1.79811548120771E-016,0.));
#376=DIRECTION('ref_axis',(1.80524069044741E-013,1.,0.));
#377=DIRECTION('center_axis',(1.,1.79811548120771E-016,0.));
#378=DIRECTION('ref_axis',(1.80524069044741E-013,1.,0.));
#379=DIRECTION('center_axis',(1.,1.79811548120771E-016,0.));
#380=DIRECTION('ref_axis',(-9.49274940270696E-014,-1.,0.));
#381=DIRECTION('center_axis',(1.,1.79811548120771E-016,0.));
#382=DIRECTION('ref_axis',(1.79811548120764E-016,-1.,0.));
#383=DIRECTION('center_axis',(-1.,-1.79811548120771E-016,0.));
#384=DIRECTION('ref_axis',(-1.80524069044741E-013,-1.,0.));
#385=DIRECTION('center_axis',(1.,1.79811548120771E-016,0.));
#386=DIRECTION('ref_axis',(1.80524069044741E-013,1.,0.));
#387=DIRECTION('center_axis',(-1.,-1.79811548120771E-016,0.));
#388=DIRECTION('ref_axis',(0.,0.,1.));
#389=DIRECTION('center_axis',(-1.,-1.79811548120771E-016,0.));
#390=DIRECTION('ref_axis',(0.,0.,1.));
#391=DIRECTION('center_axis',(1.,1.79811548120771E-016,0.));
#392=DIRECTION('ref_axis',(1.80524069044741E-013,1.,0.));
#393=DIRECTION('center_axis',(1.,1.79811548120771E-016,0.));
#394=DIRECTION('ref_axis',(1.80524069044741E-013,1.,0.));
#395=DIRECTION('center_axis',(1.,1.79811548120771E-016,0.));
#396=DIRECTION('ref_axis',(1.80524069044741E-013,1.,0.));
#397=DIRECTION('center_axis',(1.,1.79811548120771E-016,0.));
#398=DIRECTION('ref_axis',(0.,0.,-1.));
#399=DIRECTION('axis',(0.,0.,1.));
#400=DIRECTION('refdir',(1.,0.,0.));
#401=DIRECTION($,(-1.,0.,0.));
#402=DIRECTION($,(0.,0.,1.));
#403=DIRECTION($,(0.,1.80524069044741E-013,-1.));
#404=DIRECTION($,(-1.,1.80524069044741E-013,3.25889395044704E-026));
#405=DIRECTION($,(0.,-1.80524069044741E-013,-1.));
#406=DIRECTION($,(1.,-1.80524069044741E-013,3.25889395044704E-026));
#407=CARTESIAN_POINT('',(0.,0.,0.));
#408=CARTESIAN_POINT('Origin',(0.,0.,0.25));
#409=CARTESIAN_POINT('',(5.51091059616309E-015,-45.,0.5));
#410=CARTESIAN_POINT('Origin',(0.,0.,0.5));
#411=CARTESIAN_POINT('',(-5.57214293612046E-015,-45.5,0.));
#412=CARTESIAN_POINT('Origin',(0.,0.,0.));
#413=CARTESIAN_POINT('Origin',(0.,0.,0.));
#414=CARTESIAN_POINT('',(47.,5.75583995599256E-015,0.));
#415=CARTESIAN_POINT('Origin',(0.,0.,0.));
#416=CARTESIAN_POINT('Origin',(0.,0.,7.5));
#417=CARTESIAN_POINT('',(0.,-45.,15.));
#418=CARTESIAN_POINT('Origin',(0.,0.,15.));
#419=CARTESIAN_POINT('Origin',(0.,0.,244.75));
#420=CARTESIAN_POINT('',(-5.5109105961631E-015,-45.0000000000001,244.5));
#421=CARTESIAN_POINT('Origin',(0.,0.,244.5));
#422=CARTESIAN_POINT('',(5.57214293612046E-015,-45.5000000000001,245.));
#423=CARTESIAN_POINT('Origin',(0.,0.,245.));
#424=CARTESIAN_POINT('Origin',(0.,0.,245.));
#425=CARTESIAN_POINT('',(47.,-5.75583995599256E-015,245.));
#426=CARTESIAN_POINT('Origin',(0.,0.,245.));
#427=CARTESIAN_POINT('Origin',(0.,0.,237.5));
#428=CARTESIAN_POINT('',(0.,-45.0000000000001,230.));
#429=CARTESIAN_POINT('Origin',(0.,0.,230.));
#430=CARTESIAN_POINT('Origin',(0.,0.,0.5));
#431=CARTESIAN_POINT('',(48.,-5.8783046359073E-015,1.));
#432=CARTESIAN_POINT('Origin',(0.,0.,1.));
#433=CARTESIAN_POINT('Origin',(0.,0.,0.));
#434=CARTESIAN_POINT('',(48.,5.8783046359073E-015,244.));
#435=CARTESIAN_POINT('Origin',(0.,0.,244.));
#436=CARTESIAN_POINT('Origin',(0.,0.,244.5));
#437=CARTESIAN_POINT('Origin',(0.,-44.75,15.));
#438=CARTESIAN_POINT('',(0.,-44.5,15.));
#439=CARTESIAN_POINT('Origin',(0.,0.,15.));
#440=CARTESIAN_POINT('Origin',(0.,-44.75,230.));
#441=CARTESIAN_POINT('',(0.,-44.5,230.));
#442=CARTESIAN_POINT('Origin',(0.,0.,230.));
#443=CARTESIAN_POINT('Origin',(0.,0.,0.));
#444=CARTESIAN_POINT('',(0.,0.,0.));
#445=CARTESIAN_POINT('Origin',(0.249999999998873,-9.44371748865767E-018,
0.));
#446=CARTESIAN_POINT('',(-1.45459345316069E-016,12.,1.46952762458685E-015));
#447=CARTESIAN_POINT('Origin',(2.0122792321331E-015,-5.43966045186473E-017,
0.));
#448=CARTESIAN_POINT('',(0.5,12.5,-1.53075794227797E-015));
#449=CARTESIAN_POINT('Origin',(0.499999999997743,3.5509169541332E-017,0.));
#450=CARTESIAN_POINT('Origin',(0.,11.25,0.));
#451=CARTESIAN_POINT('',(0.,10.,0.));
#452=CARTESIAN_POINT('Origin',(2.22044604925031E-015,-5.43966045186471E-017,
0.));
#453=CARTESIAN_POINT('Origin',(5.,8.44661136085207E-016,0.));
#454=CARTESIAN_POINT('',(10.,12.5,0.));
#455=CARTESIAN_POINT('Origin',(10.,1.74371887668906E-015,0.));
#456=CARTESIAN_POINT('Origin',(-13.5000000000009,-2.48185250414922E-015,
0.));
#457=CARTESIAN_POINT('',(-14.,9.,1.10214571844014E-015));
#458=CARTESIAN_POINT('Origin',(-14.,-2.57175827820944E-015,0.));
#459=CARTESIAN_POINT('',(-13.,10.,-1.22460635382238E-015));
#460=CARTESIAN_POINT('Origin',(-13.0000000000018,-2.39194673008899E-015,
0.));
#461=CARTESIAN_POINT('Origin',(-7.,-1.31307744136404E-015,0.));
#462=CARTESIAN_POINT('Origin',(-14.,5.,0.));
#463=CARTESIAN_POINT('Origin',(10.,28.75,0.));
#464=CARTESIAN_POINT('',(10.,45.,0.));
#465=CARTESIAN_POINT('Origin',(10.,1.74371887668906E-015,0.));
#466=CARTESIAN_POINT('Origin',(17.5,3.09230548759485E-015,0.));
#467=CARTESIAN_POINT('',(25.,45.,0.));
#468=CARTESIAN_POINT('Origin',(25.,4.44089209850063E-015,0.));
#469=CARTESIAN_POINT('Origin',(25.,22.5,0.));
#470=CARTESIAN_POINT('',(0.,0.,0.));
#471=CARTESIAN_POINT($,(0.,0.,0.));
#472=CARTESIAN_POINT($,(10.,-1.8069844093241E-012,-3.26204178271594E-025));
#473=CARTESIAN_POINT($,(-255.,1.8069844093241E-012,-3.26204178271596E-025));
#474=UNCERTAINTY_MEASURE_WITH_UNIT(LENGTH_MEASURE(0.01),#480,
'DISTANCE_ACCURACY_VALUE',
'Maximum model space distance between geometric entities at asserted c
onnectivities');
#475=UNCERTAINTY_MEASURE_WITH_UNIT(LENGTH_MEASURE(0.01),#480,
'DISTANCE_ACCURACY_VALUE',
'Maximum model space distance between geometric entities at asserted c
onnectivities');
#476=UNCERTAINTY_MEASURE_WITH_UNIT(LENGTH_MEASURE(0.01),#480,
'DISTANCE_ACCURACY_VALUE',
'Maximum model space distance between geometric entities at asserted c
onnectivities');
#477=(
GEOMETRIC_REPRESENTATION_CONTEXT(3)
GLOBAL_UNCERTAINTY_ASSIGNED_CONTEXT((#474))
GLOBAL_UNIT_ASSIGNED_CONTEXT((#480,#483,#481))
REPRESENTATION_CONTEXT('','3D')
);
#478=(
GEOMETRIC_REPRESENTATION_CONTEXT(3)
GLOBAL_UNCERTAINTY_ASSIGNED_CONTEXT((#475))
GLOBAL_UNIT_ASSIGNED_CONTEXT((#480,#483,#481))
REPRESENTATION_CONTEXT('','3D')
);
#479=(
GEOMETRIC_REPRESENTATION_CONTEXT(3)
GLOBAL_UNCERTAINTY_ASSIGNED_CONTEXT((#476))
GLOBAL_UNIT_ASSIGNED_CONTEXT((#480,#483,#481))
REPRESENTATION_CONTEXT('','3D')
);
#480=(
LENGTH_UNIT()
NAMED_UNIT(*)
SI_UNIT(.MILLI.,.METRE.)
);
#481=(
NAMED_UNIT(*)
SI_UNIT($,.STERADIAN.)
SOLID_ANGLE_UNIT()
);
#482=DIMENSIONAL_EXPONENTS(0.,0.,0.,0.,0.,0.,0.);
#483=(
CONVERSION_BASED_UNIT('degree',#485)
NAMED_UNIT(#482)
PLANE_ANGLE_UNIT()
);
#484=(
NAMED_UNIT(*)
PLANE_ANGLE_UNIT()
SI_UNIT($,.RADIAN.)
);
#485=PLANE_ANGLE_MEASURE_WITH_UNIT(PLANE_ANGLE_MEASURE(0.01745329252),#484);
#486=SHAPE_DEFINITION_REPRESENTATION(#489,#495);
#487=SHAPE_DEFINITION_REPRESENTATION(#490,#496);
#488=SHAPE_DEFINITION_REPRESENTATION(#491,#497);
#489=PRODUCT_DEFINITION_SHAPE('',$,#499);
#490=PRODUCT_DEFINITION_SHAPE('',$,#500);
#491=PRODUCT_DEFINITION_SHAPE('',$,#501);
#492=PRODUCT_DEFINITION_SHAPE($,$,#19);
#493=PRODUCT_DEFINITION_SHAPE($,$,#20);
#494=PRODUCT_DEFINITION_SHAPE($,$,#21);
#495=SHAPE_REPRESENTATION('',(#266),#477);
#496=SHAPE_REPRESENTATION('',(#291),#478);
#497=SHAPE_REPRESENTATION('',(#309,#310,#311,#312),#479);
#498=PRODUCT_DEFINITION_CONTEXT('3D Mechanical Parts',#506,'design');
#499=PRODUCT_DEFINITION('Trubka_d96_001','Trubka_d96_001',#502,#498);
#500=PRODUCT_DEFINITION('96-\X2\010D\X0\ep I','96-\X2\010D\X0\ep I',#503,
#498);
#501=PRODUCT_DEFINITION('909095','909095',#504,#498);
#502=PRODUCT_DEFINITION_FORMATION('',$,#508);
#503=PRODUCT_DEFINITION_FORMATION('',$,#509);
#504=PRODUCT_DEFINITION_FORMATION('',$,#510);
#505=APPLICATION_PROTOCOL_DEFINITION('international standard',
'automotive_design',2009,#506);
#506=APPLICATION_CONTEXT(
'Core Data for Automotive Mechanical Design Process');
#507=PRODUCT_CONTEXT('3D Mechanical Parts',#506,'mechanical');
#508=PRODUCT('Trubka_d96_001','Trubka_d96_001',$,(#507));
#509=PRODUCT('96-\X2\010D\X0\ep I','96-\X2\010D\X0\ep I',$,(#507));
#510=PRODUCT('909095','909095',$,(#507));
#511=PRESENTATION_STYLE_ASSIGNMENT((#512));
#512=SURFACE_STYLE_USAGE(.BOTH.,#513);
#513=SURFACE_SIDE_STYLE($,(#514));
#514=SURFACE_STYLE_FILL_AREA(#515);
#515=FILL_AREA_STYLE($,(#516));
#516=FILL_AREA_STYLE_COLOUR($,#517);
#517=COLOUR_RGB('',0.63921568627451,0.63921568627451,0.686274509803922);
ENDSEC;
END-ISO-10303-21;
