ISO-10303-21;
HEADER;
/****************************************************************
 * Generated by software with PDE/Lib inside                    *
 * PDElib Version v51a, created Mon 03/22/2010                  *
 * International Technegroup Inc. (www.iti-oh.com)              *
 ****************************************************************/
FILE_DESCRIPTION((''),'2;1');
FILE_NAME('D:\\P\X2\0159\X0\evod katalogu\\Pro WEB\\STEP\\P\S\askov\S\i dopravn\S\mky\\930019.stp','2010-09-12T19:26:52',('Jarda'),(''),'Autodesk Inventor 2010','Autodesk Inventor 2010','');
FILE_SCHEMA(('AUTOMOTIVE_DESIGN { 1 0 10303 214 1 1 1 1 }'));
ENDSEC;
DATA;
#5=APPLICATION_CONTEXT('automotive design');
#6=APPLICATION_PROTOCOL_DEFINITION('International Standard','automotive_design',2001,#5);
#7=PRODUCT_CONTEXT('',#5,'mechanical');
#8=PRODUCT('930019-10','930019-10',$,(#7));
#9=PRODUCT_RELATED_PRODUCT_CATEGORY('part',$,(#8));
#10=PRODUCT_DEFINITION_FORMATION('',$,#8);
#11=PRODUCT_DEFINITION_CONTEXT('part definition',#5,'design');
#12=PRODUCT_DEFINITION('',$,#10,#11);
#18=(NAMED_UNIT(*)PLANE_ANGLE_UNIT()SI_UNIT($,.RADIAN.));
#19=DIMENSIONAL_EXPONENTS(0.0,0.0,0.0,0.0,0.0,0.0,0.0);
#20=PLANE_ANGLE_MEASURE_WITH_UNIT(PLANE_ANGLE_MEASURE(0.017453292500000),#18);
#24=(CONVERSION_BASED_UNIT('DEGREE',#20)NAMED_UNIT(#19)PLANE_ANGLE_UNIT());
#28=(NAMED_UNIT(*)SI_UNIT($,.STERADIAN.)SOLID_ANGLE_UNIT());
#32=(LENGTH_UNIT()NAMED_UNIT(*)SI_UNIT(.MILLI.,.METRE.));
#34=UNCERTAINTY_MEASURE_WITH_UNIT(LENGTH_MEASURE(0.010000000000000),#32,'DISTANCE_ACCURACY_VALUE','');
#36=(GEOMETRIC_REPRESENTATION_CONTEXT(3)GLOBAL_UNCERTAINTY_ASSIGNED_CONTEXT((#34))GLOBAL_UNIT_ASSIGNED_CONTEXT((#24,#28,#32))REPRESENTATION_CONTEXT('None','None'));
#37=AXIS2_PLACEMENT_3D('',#38,#39,#40);
#38=CARTESIAN_POINT('',(0.0,0.0,0.0));
#39=DIRECTION('',(0.0,0.0,1.0));
#40=DIRECTION('',(1.0,0.0,0.0));
#41=SHAPE_REPRESENTATION('',(#37),#36);
#42=PRODUCT_DEFINITION_SHAPE('','',#12);
#43=SHAPE_DEFINITION_REPRESENTATION(#42,#41);
#49=(NAMED_UNIT(*)PLANE_ANGLE_UNIT()SI_UNIT($,.RADIAN.));
#50=DIMENSIONAL_EXPONENTS(0.0,0.0,0.0,0.0,0.0,0.0,0.0);
#51=PLANE_ANGLE_MEASURE_WITH_UNIT(PLANE_ANGLE_MEASURE(0.017453292500000),#49);
#55=(CONVERSION_BASED_UNIT('DEGREE',#51)NAMED_UNIT(#50)PLANE_ANGLE_UNIT());
#59=(NAMED_UNIT(*)SI_UNIT($,.STERADIAN.)SOLID_ANGLE_UNIT());
#63=(LENGTH_UNIT()NAMED_UNIT(*)SI_UNIT(.MILLI.,.METRE.));
#65=UNCERTAINTY_MEASURE_WITH_UNIT(LENGTH_MEASURE(0.000001000000000),#63,'DISTANCE_ACCURACY_VALUE','');
#67=(GEOMETRIC_REPRESENTATION_CONTEXT(3)GLOBAL_UNCERTAINTY_ASSIGNED_CONTEXT((#65))GLOBAL_UNIT_ASSIGNED_CONTEXT((#55,#59,#63))REPRESENTATION_CONTEXT('','3D'));
#68=CARTESIAN_POINT('',(-6.500000000000000,-4.500000000000000,0.0));
#69=DIRECTION('',(0.0,1.0,0.0));
#70=DIRECTION('',(0.0,0.0,1.0));
#71=AXIS2_PLACEMENT_3D('',#68,#69,#70);
#72=PLANE('',#71);
#73=CARTESIAN_POINT('',(-6.500000000000000,-4.500000000000000,10.0));
#74=VERTEX_POINT('',#73);
#75=CARTESIAN_POINT('',(-4.0,-4.500000000000000,10.0));
#76=VERTEX_POINT('',#75);
#77=CARTESIAN_POINT('',(-6.500000000000000,-4.500000000000001,10.0));
#78=DIRECTION('',(1.0,0.0,0.0));
#79=VECTOR('',#78,2.500000000000000);
#80=LINE('',#77,#79);
#81=EDGE_CURVE('',#74,#76,#80,.T.);
#82=ORIENTED_EDGE('',*,*,#81,.T.);
#83=CARTESIAN_POINT('',(-4.0,-4.500000000000000,0.0));
#84=VERTEX_POINT('',#83);
#85=CARTESIAN_POINT('',(-4.0,-4.500000000000000,0.0));
#86=DIRECTION('',(0.0,0.0,1.0));
#87=VECTOR('',#86,10.0);
#88=LINE('',#85,#87);
#89=EDGE_CURVE('',#84,#76,#88,.T.);
#90=ORIENTED_EDGE('',*,*,#89,.F.);
#91=CARTESIAN_POINT('',(-6.500000000000000,-4.500000000000000,0.0));
#92=VERTEX_POINT('',#91);
#93=CARTESIAN_POINT('',(-6.500000000000000,-4.500000000000001,0.0));
#94=DIRECTION('',(1.0,0.0,0.0));
#95=VECTOR('',#94,2.500000000000000);
#96=LINE('',#93,#95);
#97=EDGE_CURVE('',#92,#84,#96,.T.);
#98=ORIENTED_EDGE('',*,*,#97,.F.);
#99=CARTESIAN_POINT('',(-6.500000000000000,-4.500000000000000,0.0));
#100=DIRECTION('',(0.0,0.0,1.0));
#101=VECTOR('',#100,10.0);
#102=LINE('',#99,#101);
#103=EDGE_CURVE('',#92,#74,#102,.T.);
#104=ORIENTED_EDGE('',*,*,#103,.T.);
#105=EDGE_LOOP('',(#82,#90,#98,#104));
#106=FACE_OUTER_BOUND('',#105,.T.);
#107=ADVANCED_FACE('',(#106),#72,.T.);
#108=CARTESIAN_POINT('',(-4.0,-4.500000000000000,0.0));
#109=DIRECTION('',(-1.0,0.0,0.0));
#110=DIRECTION('',(0.0,0.0,1.0));
#111=AXIS2_PLACEMENT_3D('',#108,#109,#110);
#112=PLANE('',#111);
#113=CARTESIAN_POINT('',(-4.0,0.0,10.0));
#114=VERTEX_POINT('',#113);
#115=CARTESIAN_POINT('',(-4.0,-4.500000000000000,10.0));
#116=DIRECTION('',(0.0,1.0,0.0));
#117=VECTOR('',#116,4.500000000000000);
#118=LINE('',#115,#117);
#119=EDGE_CURVE('',#76,#114,#118,.T.);
#120=ORIENTED_EDGE('',*,*,#119,.T.);
#121=CARTESIAN_POINT('',(-4.0,0.0,0.0));
#122=VERTEX_POINT('',#121);
#123=CARTESIAN_POINT('',(-4.0,0.0,0.0));
#124=DIRECTION('',(0.0,0.0,1.0));
#125=VECTOR('',#124,10.0);
#126=LINE('',#123,#125);
#127=EDGE_CURVE('',#122,#114,#126,.T.);
#128=ORIENTED_EDGE('',*,*,#127,.F.);
#129=CARTESIAN_POINT('',(-4.0,-4.500000000000000,0.0));
#130=DIRECTION('',(0.0,1.0,0.0));
#131=VECTOR('',#130,4.500000000000000);
#132=LINE('',#129,#131);
#133=EDGE_CURVE('',#84,#122,#132,.T.);
#134=ORIENTED_EDGE('',*,*,#133,.F.);
#135=ORIENTED_EDGE('',*,*,#89,.T.);
#136=EDGE_LOOP('',(#120,#128,#134,#135));
#137=FACE_OUTER_BOUND('',#136,.T.);
#138=ADVANCED_FACE('',(#137),#112,.T.);
#139=CARTESIAN_POINT('',(-4.0,0.0,0.0));
#140=DIRECTION('',(0.0,-1.0,0.0));
#141=DIRECTION('',(0.0,0.0,-1.0));
#142=AXIS2_PLACEMENT_3D('',#139,#140,#141);
#143=PLANE('',#142);
#144=CARTESIAN_POINT('',(-19.0,-5.551115E-016,10.0));
#145=VERTEX_POINT('',#144);
#146=CARTESIAN_POINT('',(-4.0,-7.401487E-017,10.0));
#147=DIRECTION('',(-1.0,0.0,0.0));
#148=VECTOR('',#147,15.0);
#149=LINE('',#146,#148);
#150=EDGE_CURVE('',#114,#145,#149,.T.);
#151=ORIENTED_EDGE('',*,*,#150,.T.);
#152=CARTESIAN_POINT('',(-19.0,-5.551115E-016,0.0));
#153=VERTEX_POINT('',#152);
#154=CARTESIAN_POINT('',(-19.0,-5.551115E-016,0.0));
#155=DIRECTION('',(0.0,0.0,1.0));
#156=VECTOR('',#155,10.0);
#157=LINE('',#154,#156);
#158=EDGE_CURVE('',#153,#145,#157,.T.);
#159=ORIENTED_EDGE('',*,*,#158,.F.);
#160=CARTESIAN_POINT('',(-4.0,-7.401487E-017,0.0));
#161=DIRECTION('',(-1.0,0.0,0.0));
#162=VECTOR('',#161,15.0);
#163=LINE('',#160,#162);
#164=EDGE_CURVE('',#122,#153,#163,.T.);
#165=ORIENTED_EDGE('',*,*,#164,.F.);
#166=ORIENTED_EDGE('',*,*,#127,.T.);
#167=EDGE_LOOP('',(#151,#159,#165,#166));
#168=FACE_OUTER_BOUND('',#167,.T.);
#169=ADVANCED_FACE('',(#168),#143,.T.);
#170=CARTESIAN_POINT('',(-19.0,0.999999999999994,0.0));
#171=DIRECTION('',(0.0,0.0,1.0));
#172=DIRECTION('',(1.0,0.0,0.0));
#173=AXIS2_PLACEMENT_3D('',#170,#171,#172);
#174=CYLINDRICAL_SURFACE('',#173,1.0);
#175=CARTESIAN_POINT('',(-20.0,0.999999999999994,10.0));
#176=VERTEX_POINT('',#175);
#177=CARTESIAN_POINT('',(-19.0,0.999999999999994,10.0));
#178=DIRECTION('',(0.0,0.0,-1.0));
#179=DIRECTION('',(1.0,0.0,0.0));
#180=AXIS2_PLACEMENT_3D('',#177,#178,#179);
#181=CIRCLE('',#180,1.0);
#182=EDGE_CURVE('',#145,#176,#181,.T.);
#183=ORIENTED_EDGE('',*,*,#182,.T.);
#184=CARTESIAN_POINT('',(-20.0,0.999999999999994,0.0));
#185=VERTEX_POINT('',#184);
#186=CARTESIAN_POINT('',(-20.0,0.999999999999994,0.0));
#187=DIRECTION('',(0.0,0.0,1.0));
#188=VECTOR('',#187,10.0);
#189=LINE('',#186,#188);
#190=EDGE_CURVE('',#185,#176,#189,.T.);
#191=ORIENTED_EDGE('',*,*,#190,.F.);
#192=CARTESIAN_POINT('',(-19.0,0.999999999999994,0.0));
#193=DIRECTION('',(0.0,0.0,-1.0));
#194=DIRECTION('',(1.0,0.0,0.0));
#195=AXIS2_PLACEMENT_3D('',#192,#193,#194);
#196=CIRCLE('',#195,1.0);
#197=EDGE_CURVE('',#153,#185,#196,.T.);
#198=ORIENTED_EDGE('',*,*,#197,.F.);
#199=ORIENTED_EDGE('',*,*,#158,.T.);
#200=EDGE_LOOP('',(#183,#191,#198,#199));
#201=FACE_OUTER_BOUND('',#200,.T.);
#202=ADVANCED_FACE('',(#201),#174,.T.);
#203=CARTESIAN_POINT('',(-20.0,0.999999999999994,0.0));
#204=DIRECTION('',(-1.0,0.0,0.0));
#205=DIRECTION('',(0.0,0.0,1.0));
#206=AXIS2_PLACEMENT_3D('',#203,#204,#205);
#207=PLANE('',#206);
#208=CARTESIAN_POINT('',(-19.999999999999996,18.0,10.0));
#209=VERTEX_POINT('',#208);
#210=CARTESIAN_POINT('',(-20.0,0.999999999999994,10.0));
#211=DIRECTION('',(0.0,1.0,0.0));
#212=VECTOR('',#211,17.000000000000007);
#213=LINE('',#210,#212);
#214=EDGE_CURVE('',#176,#209,#213,.T.);
#215=ORIENTED_EDGE('',*,*,#214,.T.);
#216=CARTESIAN_POINT('',(-19.999999999999996,18.0,0.0));
#217=VERTEX_POINT('',#216);
#218=CARTESIAN_POINT('',(-19.999999999999996,18.0,0.0));
#219=DIRECTION('',(0.0,0.0,1.0));
#220=VECTOR('',#219,10.0);
#221=LINE('',#218,#220);
#222=EDGE_CURVE('',#217,#209,#221,.T.);
#223=ORIENTED_EDGE('',*,*,#222,.F.);
#224=CARTESIAN_POINT('',(-20.0,0.999999999999994,0.0));
#225=DIRECTION('',(0.0,1.0,0.0));
#226=VECTOR('',#225,17.000000000000007);
#227=LINE('',#224,#226);
#228=EDGE_CURVE('',#185,#217,#227,.T.);
#229=ORIENTED_EDGE('',*,*,#228,.F.);
#230=ORIENTED_EDGE('',*,*,#190,.T.);
#231=EDGE_LOOP('',(#215,#223,#229,#230));
#232=FACE_OUTER_BOUND('',#231,.T.);
#233=ADVANCED_FACE('',(#232),#207,.T.);
#234=CARTESIAN_POINT('',(-19.999999999999996,18.0,0.0));
#235=DIRECTION('',(0.0,1.0,0.0));
#236=DIRECTION('',(0.0,0.0,1.0));
#237=AXIS2_PLACEMENT_3D('',#234,#235,#236);
#238=PLANE('',#237);
#239=CARTESIAN_POINT('',(-16.0,18.0,10.0));
#240=VERTEX_POINT('',#239);
#241=CARTESIAN_POINT('',(-19.999999999999996,18.0,10.0));
#242=DIRECTION('',(1.0,0.0,0.0));
#243=VECTOR('',#242,3.999999999999996);
#244=LINE('',#241,#243);
#245=EDGE_CURVE('',#209,#240,#244,.T.);
#246=ORIENTED_EDGE('',*,*,#245,.T.);
#247=CARTESIAN_POINT('',(-16.0,18.0,0.0));
#248=VERTEX_POINT('',#247);
#249=CARTESIAN_POINT('',(-16.0,18.0,0.0));
#250=DIRECTION('',(0.0,0.0,1.0));
#251=VECTOR('',#250,10.0);
#252=LINE('',#249,#251);
#253=EDGE_CURVE('',#248,#240,#252,.T.);
#254=ORIENTED_EDGE('',*,*,#253,.F.);
#255=CARTESIAN_POINT('',(-19.999999999999996,18.0,0.0));
#256=DIRECTION('',(1.0,0.0,0.0));
#257=VECTOR('',#256,3.999999999999996);
#258=LINE('',#255,#257);
#259=EDGE_CURVE('',#217,#248,#258,.T.);
#260=ORIENTED_EDGE('',*,*,#259,.F.);
#261=ORIENTED_EDGE('',*,*,#222,.T.);
#262=EDGE_LOOP('',(#246,#254,#260,#261));
#263=FACE_OUTER_BOUND('',#262,.T.);
#264=ADVANCED_FACE('',(#263),#238,.T.);
#265=CARTESIAN_POINT('',(-16.0,18.0,0.0));
#266=DIRECTION('',(1.0,0.0,0.0));
#267=DIRECTION('',(0.0,0.0,-1.0));
#268=AXIS2_PLACEMENT_3D('',#265,#266,#267);
#269=PLANE('',#268);
#270=CARTESIAN_POINT('',(-16.0,4.999999999999998,10.0));
#271=VERTEX_POINT('',#270);
#272=CARTESIAN_POINT('',(-16.0,18.0,10.0));
#273=DIRECTION('',(0.0,-1.0,0.0));
#274=VECTOR('',#273,13.000000000000002);
#275=LINE('',#272,#274);
#276=EDGE_CURVE('',#240,#271,#275,.T.);
#277=ORIENTED_EDGE('',*,*,#276,.T.);
#278=CARTESIAN_POINT('',(-16.0,4.999999999999998,0.0));
#279=VERTEX_POINT('',#278);
#280=CARTESIAN_POINT('',(-16.0,4.999999999999998,0.0));
#281=DIRECTION('',(0.0,0.0,1.0));
#282=VECTOR('',#281,10.0);
#283=LINE('',#280,#282);
#284=EDGE_CURVE('',#279,#271,#283,.T.);
#285=ORIENTED_EDGE('',*,*,#284,.F.);
#286=CARTESIAN_POINT('',(-16.0,18.0,0.0));
#287=DIRECTION('',(0.0,-1.0,0.0));
#288=VECTOR('',#287,13.000000000000002);
#289=LINE('',#286,#288);
#290=EDGE_CURVE('',#248,#279,#289,.T.);
#291=ORIENTED_EDGE('',*,*,#290,.F.);
#292=ORIENTED_EDGE('',*,*,#253,.T.);
#293=EDGE_LOOP('',(#277,#285,#291,#292));
#294=FACE_OUTER_BOUND('',#293,.T.);
#295=ADVANCED_FACE('',(#294),#269,.T.);
#296=CARTESIAN_POINT('',(-16.0,4.999999999999998,0.0));
#297=DIRECTION('',(0.0,1.0,0.0));
#298=DIRECTION('',(0.0,0.0,1.0));
#299=AXIS2_PLACEMENT_3D('',#296,#297,#298);
#300=PLANE('',#299);
#301=CARTESIAN_POINT('',(16.0,5.0,10.0));
#302=VERTEX_POINT('',#301);
#303=CARTESIAN_POINT('',(-16.0,4.999999999999997,10.0));
#304=DIRECTION('',(1.0,0.0,0.0));
#305=VECTOR('',#304,32.0);
#306=LINE('',#303,#305);
#307=EDGE_CURVE('',#271,#302,#306,.T.);
#308=ORIENTED_EDGE('',*,*,#307,.T.);
#309=CARTESIAN_POINT('',(16.0,5.0,0.0));
#310=VERTEX_POINT('',#309);
#311=CARTESIAN_POINT('',(16.0,5.0,0.0));
#312=DIRECTION('',(0.0,0.0,1.0));
#313=VECTOR('',#312,10.0);
#314=LINE('',#311,#313);
#315=EDGE_CURVE('',#310,#302,#314,.T.);
#316=ORIENTED_EDGE('',*,*,#315,.F.);
#317=CARTESIAN_POINT('',(-16.0,4.999999999999997,0.0));
#318=DIRECTION('',(1.0,0.0,0.0));
#319=VECTOR('',#318,32.0);
#320=LINE('',#317,#319);
#321=EDGE_CURVE('',#279,#310,#320,.T.);
#322=ORIENTED_EDGE('',*,*,#321,.F.);
#323=ORIENTED_EDGE('',*,*,#284,.T.);
#324=EDGE_LOOP('',(#308,#316,#322,#323));
#325=FACE_OUTER_BOUND('',#324,.T.);
#326=ADVANCED_FACE('',(#325),#300,.T.);
#327=CARTESIAN_POINT('',(16.0,5.0,0.0));
#328=DIRECTION('',(-1.0,0.0,0.0));
#329=DIRECTION('',(0.0,0.0,1.0));
#330=AXIS2_PLACEMENT_3D('',#327,#328,#329);
#331=PLANE('',#330);
#332=CARTESIAN_POINT('',(16.0,6.000000000000002,10.0));
#333=VERTEX_POINT('',#332);
#334=CARTESIAN_POINT('',(16.0,5.0,10.0));
#335=DIRECTION('',(0.0,1.0,0.0));
#336=VECTOR('',#335,1.000000000000002);
#337=LINE('',#334,#336);
#338=EDGE_CURVE('',#302,#333,#337,.T.);
#339=ORIENTED_EDGE('',*,*,#338,.T.);
#340=CARTESIAN_POINT('',(16.0,6.000000000000002,0.0));
#341=VERTEX_POINT('',#340);
#342=CARTESIAN_POINT('',(16.0,6.000000000000002,0.0));
#343=DIRECTION('',(0.0,0.0,1.0));
#344=VECTOR('',#343,10.0);
#345=LINE('',#342,#344);
#346=EDGE_CURVE('',#341,#333,#345,.T.);
#347=ORIENTED_EDGE('',*,*,#346,.F.);
#348=CARTESIAN_POINT('',(16.0,5.0,0.0));
#349=DIRECTION('',(0.0,1.0,0.0));
#350=VECTOR('',#349,1.000000000000002);
#351=LINE('',#348,#350);
#352=EDGE_CURVE('',#310,#341,#351,.T.);
#353=ORIENTED_EDGE('',*,*,#352,.F.);
#354=ORIENTED_EDGE('',*,*,#315,.T.);
#355=EDGE_LOOP('',(#339,#347,#353,#354));
#356=FACE_OUTER_BOUND('',#355,.T.);
#357=ADVANCED_FACE('',(#356),#331,.T.);
#358=CARTESIAN_POINT('',(16.0,6.000000000000002,0.0));
#359=DIRECTION('',(0.0,1.0,0.0));
#360=DIRECTION('',(0.0,0.0,1.0));
#361=AXIS2_PLACEMENT_3D('',#358,#359,#360);
#362=PLANE('',#361);
#363=CARTESIAN_POINT('',(20.0,6.000000000000002,10.0));
#364=VERTEX_POINT('',#363);
#365=CARTESIAN_POINT('',(16.0,6.000000000000001,10.0));
#366=DIRECTION('',(1.0,0.0,0.0));
#367=VECTOR('',#366,4.0);
#368=LINE('',#365,#367);
#369=EDGE_CURVE('',#333,#364,#368,.T.);
#370=ORIENTED_EDGE('',*,*,#369,.T.);
#371=CARTESIAN_POINT('',(20.0,6.000000000000002,0.0));
#372=VERTEX_POINT('',#371);
#373=CARTESIAN_POINT('',(20.0,6.000000000000002,0.0));
#374=DIRECTION('',(0.0,0.0,1.0));
#375=VECTOR('',#374,10.0);
#376=LINE('',#373,#375);
#377=EDGE_CURVE('',#372,#364,#376,.T.);
#378=ORIENTED_EDGE('',*,*,#377,.F.);
#379=CARTESIAN_POINT('',(16.0,6.000000000000001,0.0));
#380=DIRECTION('',(1.0,0.0,0.0));
#381=VECTOR('',#380,4.0);
#382=LINE('',#379,#381);
#383=EDGE_CURVE('',#341,#372,#382,.T.);
#384=ORIENTED_EDGE('',*,*,#383,.F.);
#385=ORIENTED_EDGE('',*,*,#346,.T.);
#386=EDGE_LOOP('',(#370,#378,#384,#385));
#387=FACE_OUTER_BOUND('',#386,.T.);
#388=ADVANCED_FACE('',(#387),#362,.T.);
#389=CARTESIAN_POINT('',(20.0,6.000000000000002,0.0));
#390=DIRECTION('',(1.0,0.0,0.0));
#391=DIRECTION('',(0.0,0.0,-1.0));
#392=AXIS2_PLACEMENT_3D('',#389,#390,#391);
#393=PLANE('',#392);
#394=CARTESIAN_POINT('',(20.0,1.000000000000001,10.0));
#395=VERTEX_POINT('',#394);
#396=CARTESIAN_POINT('',(20.0,6.000000000000002,10.0));
#397=DIRECTION('',(0.0,-1.0,0.0));
#398=VECTOR('',#397,5.000000000000002);
#399=LINE('',#396,#398);
#400=EDGE_CURVE('',#364,#395,#399,.T.);
#401=ORIENTED_EDGE('',*,*,#400,.T.);
#402=CARTESIAN_POINT('',(20.0,1.000000000000001,0.0));
#403=VERTEX_POINT('',#402);
#404=CARTESIAN_POINT('',(20.0,1.000000000000001,0.0));
#405=DIRECTION('',(0.0,0.0,1.0));
#406=VECTOR('',#405,10.0);
#407=LINE('',#404,#406);
#408=EDGE_CURVE('',#403,#395,#407,.T.);
#409=ORIENTED_EDGE('',*,*,#408,.F.);
#410=CARTESIAN_POINT('',(20.0,6.000000000000002,0.0));
#411=DIRECTION('',(0.0,-1.0,0.0));
#412=VECTOR('',#411,5.000000000000002);
#413=LINE('',#410,#412);
#414=EDGE_CURVE('',#372,#403,#413,.T.);
#415=ORIENTED_EDGE('',*,*,#414,.F.);
#416=ORIENTED_EDGE('',*,*,#377,.T.);
#417=EDGE_LOOP('',(#401,#409,#415,#416));
#418=FACE_OUTER_BOUND('',#417,.T.);
#419=ADVANCED_FACE('',(#418),#393,.T.);
#420=CARTESIAN_POINT('',(19.0,1.000000000000001,0.0));
#421=DIRECTION('',(0.0,0.0,1.0));
#422=DIRECTION('',(0.0,1.0,0.0));
#423=AXIS2_PLACEMENT_3D('',#420,#421,#422);
#424=CYLINDRICAL_SURFACE('',#423,1.0);
#425=CARTESIAN_POINT('',(19.0,2.220446E-015,10.0));
#426=VERTEX_POINT('',#425);
#427=CARTESIAN_POINT('',(19.0,1.000000000000001,10.0));
#428=DIRECTION('',(0.0,0.0,-1.0));
#429=DIRECTION('',(0.0,1.0,0.0));
#430=AXIS2_PLACEMENT_3D('',#427,#428,#429);
#431=CIRCLE('',#430,1.0);
#432=EDGE_CURVE('',#395,#426,#431,.T.);
#433=ORIENTED_EDGE('',*,*,#432,.T.);
#434=CARTESIAN_POINT('',(19.0,2.220446E-015,0.0));
#435=VERTEX_POINT('',#434);
#436=CARTESIAN_POINT('',(19.0,2.220446E-015,0.0));
#437=DIRECTION('',(0.0,0.0,1.0));
#438=VECTOR('',#437,10.0);
#439=LINE('',#436,#438);
#440=EDGE_CURVE('',#435,#426,#439,.T.);
#441=ORIENTED_EDGE('',*,*,#440,.F.);
#442=CARTESIAN_POINT('',(19.0,1.000000000000001,0.0));
#443=DIRECTION('',(0.0,0.0,-1.0));
#444=DIRECTION('',(0.0,1.0,0.0));
#445=AXIS2_PLACEMENT_3D('',#442,#443,#444);
#446=CIRCLE('',#445,1.0);
#447=EDGE_CURVE('',#403,#435,#446,.T.);
#448=ORIENTED_EDGE('',*,*,#447,.F.);
#449=ORIENTED_EDGE('',*,*,#408,.T.);
#450=EDGE_LOOP('',(#433,#441,#448,#449));
#451=FACE_OUTER_BOUND('',#450,.T.);
#452=ADVANCED_FACE('',(#451),#424,.T.);
#453=CARTESIAN_POINT('',(19.0,2.220446E-015,0.0));
#454=DIRECTION('',(0.0,-1.0,0.0));
#455=DIRECTION('',(0.0,0.0,-1.0));
#456=AXIS2_PLACEMENT_3D('',#453,#454,#455);
#457=PLANE('',#456);
#458=CARTESIAN_POINT('',(4.0,0.0,10.0));
#459=VERTEX_POINT('',#458);
#460=CARTESIAN_POINT('',(19.0,1.961394E-015,10.0));
#461=DIRECTION('',(-1.0,0.0,0.0));
#462=VECTOR('',#461,15.0);
#463=LINE('',#460,#462);
#464=EDGE_CURVE('',#426,#459,#463,.T.);
#465=ORIENTED_EDGE('',*,*,#464,.T.);
#466=CARTESIAN_POINT('',(4.0,0.0,0.0));
#467=VERTEX_POINT('',#466);
#468=CARTESIAN_POINT('',(4.0,0.0,0.0));
#469=DIRECTION('',(0.0,0.0,1.0));
#470=VECTOR('',#469,10.0);
#471=LINE('',#468,#470);
#472=EDGE_CURVE('',#467,#459,#471,.T.);
#473=ORIENTED_EDGE('',*,*,#472,.F.);
#474=CARTESIAN_POINT('',(19.0,1.961394E-015,0.0));
#475=DIRECTION('',(-1.0,0.0,0.0));
#476=VECTOR('',#475,15.0);
#477=LINE('',#474,#476);
#478=EDGE_CURVE('',#435,#467,#477,.T.);
#479=ORIENTED_EDGE('',*,*,#478,.F.);
#480=ORIENTED_EDGE('',*,*,#440,.T.);
#481=EDGE_LOOP('',(#465,#473,#479,#480));
#482=FACE_OUTER_BOUND('',#481,.T.);
#483=ADVANCED_FACE('',(#482),#457,.T.);
#484=CARTESIAN_POINT('',(4.0,0.0,0.0));
#485=DIRECTION('',(1.0,0.0,0.0));
#486=DIRECTION('',(0.0,0.0,-1.0));
#487=AXIS2_PLACEMENT_3D('',#484,#485,#486);
#488=PLANE('',#487);
#489=CARTESIAN_POINT('',(4.0,-4.500000000000000,10.0));
#490=VERTEX_POINT('',#489);
#491=CARTESIAN_POINT('',(4.0,0.0,10.0));
#492=DIRECTION('',(0.0,-1.0,0.0));
#493=VECTOR('',#492,4.500000000000000);
#494=LINE('',#491,#493);
#495=EDGE_CURVE('',#459,#490,#494,.T.);
#496=ORIENTED_EDGE('',*,*,#495,.T.);
#497=CARTESIAN_POINT('',(4.0,-4.500000000000000,0.0));
#498=VERTEX_POINT('',#497);
#499=CARTESIAN_POINT('',(4.0,-4.500000000000000,0.0));
#500=DIRECTION('',(0.0,0.0,1.0));
#501=VECTOR('',#500,10.0);
#502=LINE('',#499,#501);
#503=EDGE_CURVE('',#498,#490,#502,.T.);
#504=ORIENTED_EDGE('',*,*,#503,.F.);
#505=CARTESIAN_POINT('',(4.0,0.0,0.0));
#506=DIRECTION('',(0.0,-1.0,0.0));
#507=VECTOR('',#506,4.500000000000000);
#508=LINE('',#505,#507);
#509=EDGE_CURVE('',#467,#498,#508,.T.);
#510=ORIENTED_EDGE('',*,*,#509,.F.);
#511=ORIENTED_EDGE('',*,*,#472,.T.);
#512=EDGE_LOOP('',(#496,#504,#510,#511));
#513=FACE_OUTER_BOUND('',#512,.T.);
#514=ADVANCED_FACE('',(#513),#488,.T.);
#515=CARTESIAN_POINT('',(4.0,-4.500000000000000,0.0));
#516=DIRECTION('',(0.0,1.0,0.0));
#517=DIRECTION('',(0.0,0.0,1.0));
#518=AXIS2_PLACEMENT_3D('',#515,#516,#517);
#519=PLANE('',#518);
#520=CARTESIAN_POINT('',(6.500000000000000,-4.500000000000001,10.0));
#521=VERTEX_POINT('',#520);
#522=CARTESIAN_POINT('',(4.0,-4.500000000000001,10.0));
#523=DIRECTION('',(1.0,0.0,0.0));
#524=VECTOR('',#523,2.500000000000000);
#525=LINE('',#522,#524);
#526=EDGE_CURVE('',#490,#521,#525,.T.);
#527=ORIENTED_EDGE('',*,*,#526,.T.);
#528=CARTESIAN_POINT('',(6.500000000000000,-4.500000000000001,0.0));
#529=VERTEX_POINT('',#528);
#530=CARTESIAN_POINT('',(6.500000000000000,-4.500000000000001,0.0));
#531=DIRECTION('',(0.0,0.0,1.0));
#532=VECTOR('',#531,10.0);
#533=LINE('',#530,#532);
#534=EDGE_CURVE('',#529,#521,#533,.T.);
#535=ORIENTED_EDGE('',*,*,#534,.F.);
#536=CARTESIAN_POINT('',(4.0,-4.500000000000001,0.0));
#537=DIRECTION('',(1.0,0.0,0.0));
#538=VECTOR('',#537,2.500000000000000);
#539=LINE('',#536,#538);
#540=EDGE_CURVE('',#498,#529,#539,.T.);
#541=ORIENTED_EDGE('',*,*,#540,.F.);
#542=ORIENTED_EDGE('',*,*,#503,.T.);
#543=EDGE_LOOP('',(#527,#535,#541,#542));
#544=FACE_OUTER_BOUND('',#543,.T.);
#545=ADVANCED_FACE('',(#544),#519,.T.);
#546=CARTESIAN_POINT('',(6.500000000000000,-4.500000000000001,0.0));
#547=DIRECTION('',(1.0,0.0,0.0));
#548=DIRECTION('',(0.0,0.0,-1.0));
#549=AXIS2_PLACEMENT_3D('',#546,#547,#548);
#550=PLANE('',#549);
#551=CARTESIAN_POINT('',(6.500000000000000,-8.0,10.0));
#552=VERTEX_POINT('',#551);
#553=CARTESIAN_POINT('',(6.500000000000000,-4.500000000000000,10.0));
#554=DIRECTION('',(0.0,-1.0,0.0));
#555=VECTOR('',#554,3.500000000000000);
#556=LINE('',#553,#555);
#557=EDGE_CURVE('',#521,#552,#556,.T.);
#558=ORIENTED_EDGE('',*,*,#557,.T.);
#559=CARTESIAN_POINT('',(6.500000000000000,-8.0,0.0));
#560=VERTEX_POINT('',#559);
#561=CARTESIAN_POINT('',(6.500000000000000,-8.0,0.0));
#562=DIRECTION('',(0.0,0.0,1.0));
#563=VECTOR('',#562,10.0);
#564=LINE('',#561,#563);
#565=EDGE_CURVE('',#560,#552,#564,.T.);
#566=ORIENTED_EDGE('',*,*,#565,.F.);
#567=CARTESIAN_POINT('',(6.500000000000000,-4.500000000000000,0.0));
#568=DIRECTION('',(0.0,-1.0,0.0));
#569=VECTOR('',#568,3.500000000000000);
#570=LINE('',#567,#569);
#571=EDGE_CURVE('',#529,#560,#570,.T.);
#572=ORIENTED_EDGE('',*,*,#571,.F.);
#573=ORIENTED_EDGE('',*,*,#534,.T.);
#574=EDGE_LOOP('',(#558,#566,#572,#573));
#575=FACE_OUTER_BOUND('',#574,.T.);
#576=ADVANCED_FACE('',(#575),#550,.T.);
#577=CARTESIAN_POINT('',(6.500000000000000,-8.0,0.0));
#578=DIRECTION('',(0.0,-1.0,0.0));
#579=DIRECTION('',(0.0,0.0,-1.0));
#580=AXIS2_PLACEMENT_3D('',#577,#578,#579);
#581=PLANE('',#580);
#582=CARTESIAN_POINT('',(-6.500000000000000,-8.0,10.0));
#583=VERTEX_POINT('',#582);
#584=CARTESIAN_POINT('',(6.500000000000000,-8.0,10.0));
#585=DIRECTION('',(-1.0,0.0,0.0));
#586=VECTOR('',#585,13.0);
#587=LINE('',#584,#586);
#588=EDGE_CURVE('',#552,#583,#587,.T.);
#589=ORIENTED_EDGE('',*,*,#588,.T.);
#590=CARTESIAN_POINT('',(-6.500000000000000,-8.0,0.0));
#591=VERTEX_POINT('',#590);
#592=CARTESIAN_POINT('',(-6.500000000000000,-8.0,0.0));
#593=DIRECTION('',(0.0,0.0,1.0));
#594=VECTOR('',#593,10.0);
#595=LINE('',#592,#594);
#596=EDGE_CURVE('',#591,#583,#595,.T.);
#597=ORIENTED_EDGE('',*,*,#596,.F.);
#598=CARTESIAN_POINT('',(6.500000000000000,-8.0,0.0));
#599=DIRECTION('',(-1.0,0.0,0.0));
#600=VECTOR('',#599,13.0);
#601=LINE('',#598,#600);
#602=EDGE_CURVE('',#560,#591,#601,.T.);
#603=ORIENTED_EDGE('',*,*,#602,.F.);
#604=ORIENTED_EDGE('',*,*,#565,.T.);
#605=EDGE_LOOP('',(#589,#597,#603,#604));
#606=FACE_OUTER_BOUND('',#605,.T.);
#607=ADVANCED_FACE('',(#606),#581,.T.);
#608=CARTESIAN_POINT('',(-6.500000000000000,-8.0,0.0));
#609=DIRECTION('',(-1.0,0.0,0.0));
#610=DIRECTION('',(0.0,0.0,1.0));
#611=AXIS2_PLACEMENT_3D('',#608,#609,#610);
#612=PLANE('',#611);
#613=CARTESIAN_POINT('',(-6.500000000000000,-8.0,10.0));
#614=DIRECTION('',(0.0,1.0,0.0));
#615=VECTOR('',#614,3.500000000000000);
#616=LINE('',#613,#615);
#617=EDGE_CURVE('',#583,#74,#616,.T.);
#618=ORIENTED_EDGE('',*,*,#617,.T.);
#619=ORIENTED_EDGE('',*,*,#103,.F.);
#620=CARTESIAN_POINT('',(-6.500000000000000,-8.0,0.0));
#621=DIRECTION('',(0.0,1.0,0.0));
#622=VECTOR('',#621,3.500000000000000);
#623=LINE('',#620,#622);
#624=EDGE_CURVE('',#591,#92,#623,.T.);
#625=ORIENTED_EDGE('',*,*,#624,.F.);
#626=ORIENTED_EDGE('',*,*,#596,.T.);
#627=EDGE_LOOP('',(#618,#619,#625,#626));
#628=FACE_OUTER_BOUND('',#627,.T.);
#629=ADVANCED_FACE('',(#628),#612,.T.);
#630=CARTESIAN_POINT('',(0.0,5.0,10.0));
#631=DIRECTION('',(0.0,0.0,1.0));
#632=DIRECTION('',(1.0,0.0,0.0));
#633=AXIS2_PLACEMENT_3D('',#630,#631,#632);
#634=PLANE('',#633);
#635=ORIENTED_EDGE('',*,*,#369,.F.);
#636=ORIENTED_EDGE('',*,*,#338,.F.);
#637=ORIENTED_EDGE('',*,*,#307,.F.);
#638=ORIENTED_EDGE('',*,*,#276,.F.);
#639=ORIENTED_EDGE('',*,*,#245,.F.);
#640=ORIENTED_EDGE('',*,*,#214,.F.);
#641=ORIENTED_EDGE('',*,*,#182,.F.);
#642=ORIENTED_EDGE('',*,*,#150,.F.);
#643=ORIENTED_EDGE('',*,*,#119,.F.);
#644=ORIENTED_EDGE('',*,*,#81,.F.);
#645=ORIENTED_EDGE('',*,*,#617,.F.);
#646=ORIENTED_EDGE('',*,*,#588,.F.);
#647=ORIENTED_EDGE('',*,*,#557,.F.);
#648=ORIENTED_EDGE('',*,*,#526,.F.);
#649=ORIENTED_EDGE('',*,*,#495,.F.);
#650=ORIENTED_EDGE('',*,*,#464,.F.);
#651=ORIENTED_EDGE('',*,*,#432,.F.);
#652=ORIENTED_EDGE('',*,*,#400,.F.);
#653=EDGE_LOOP('',(#635,#636,#637,#638,#639,#640,#641,#642,#643,#644,#645,#646,#647,#648,#649,#650,#651,#652));
#654=FACE_OUTER_BOUND('',#653,.T.);
#655=ADVANCED_FACE('',(#654),#634,.T.);
#656=CARTESIAN_POINT('',(0.0,5.0,0.0));
#657=DIRECTION('',(0.0,0.0,1.0));
#658=DIRECTION('',(1.0,0.0,0.0));
#659=AXIS2_PLACEMENT_3D('',#656,#657,#658);
#660=PLANE('',#659);
#661=ORIENTED_EDGE('',*,*,#383,.T.);
#662=ORIENTED_EDGE('',*,*,#414,.T.);
#663=ORIENTED_EDGE('',*,*,#447,.T.);
#664=ORIENTED_EDGE('',*,*,#478,.T.);
#665=ORIENTED_EDGE('',*,*,#509,.T.);
#666=ORIENTED_EDGE('',*,*,#540,.T.);
#667=ORIENTED_EDGE('',*,*,#571,.T.);
#668=ORIENTED_EDGE('',*,*,#602,.T.);
#669=ORIENTED_EDGE('',*,*,#624,.T.);
#670=ORIENTED_EDGE('',*,*,#97,.T.);
#671=ORIENTED_EDGE('',*,*,#133,.T.);
#672=ORIENTED_EDGE('',*,*,#164,.T.);
#673=ORIENTED_EDGE('',*,*,#197,.T.);
#674=ORIENTED_EDGE('',*,*,#228,.T.);
#675=ORIENTED_EDGE('',*,*,#259,.T.);
#676=ORIENTED_EDGE('',*,*,#290,.T.);
#677=ORIENTED_EDGE('',*,*,#321,.T.);
#678=ORIENTED_EDGE('',*,*,#352,.T.);
#679=EDGE_LOOP('',(#661,#662,#663,#664,#665,#666,#667,#668,#669,#670,#671,#672,#673,#674,#675,#676,#677,#678));
#680=FACE_OUTER_BOUND('',#679,.T.);
#681=ADVANCED_FACE('',(#680),#660,.F.);
#682=CLOSED_SHELL('',(#107,#138,#169,#202,#233,#264,#295,#326,#357,#388,#419,#452,#483,#514,#545,#576,#607,#629,#655,#681));
#683=MANIFOLD_SOLID_BREP('T\X2\011B\X0\leso1',#682);
#684=COLOUR_RGB('Plast (\X2\FFFD\X0\ern\X2\FFFD\X0\)',0.705882012844086,0.705882012844086,0.705882012844086);
#685=FILL_AREA_STYLE_COLOUR('Plast (\X2\FFFD\X0\ern\X2\FFFD\X0\)',#684);
#686=FILL_AREA_STYLE('Plast (\X2\FFFD\X0\ern\X2\FFFD\X0\)',(#685));
#687=SURFACE_STYLE_FILL_AREA(#686);
#688=SURFACE_SIDE_STYLE('Plast (\X2\FFFD\X0\ern\X2\FFFD\X0\)',(#687));
#689=SURFACE_STYLE_USAGE(.BOTH.,#688);
#690=PRESENTATION_STYLE_ASSIGNMENT((#689));
#691=STYLED_ITEM('',(#690),#683);
#692=MECHANICAL_DESIGN_GEOMETRIC_PRESENTATION_REPRESENTATION('',(#691),#36);
#693=ADVANCED_BREP_SHAPE_REPRESENTATION('ABSR',(#683),#36);
#694=SHAPE_REPRESENTATION_RELATIONSHIP('SRR','None',#693,#41);
ENDSEC;
END-ISO-10303-21;
