ISO-10303-21;
HEADER;
/****************************************************************
 * Generated by software with PDE/Lib inside                    *
 * PDElib Version v51a, created Mon 03/22/2010                  *
 * International Technegroup Inc. (www.iti-oh.com)              *
 ****************************************************************/
FILE_DESCRIPTION((''),'2;1');
FILE_NAME('D:\\P\X2\0159\X0\evod katalogu\\Pro WEB\\STEP\\P\S\askov\S\i dopravn\S\mky\\930023_1.stp','2010-09-12T19:31:56',('Jarda'),(''),'Autodesk Inventor 2010','Autodesk Inventor 2010','');
FILE_SCHEMA(('AUTOMOTIVE_DESIGN { 1 0 10303 214 1 1 1 1 }'));
ENDSEC;
DATA;
#5=APPLICATION_CONTEXT('automotive design');
#6=APPLICATION_PROTOCOL_DEFINITION('International Standard','automotive_design',2001,#5);
#7=PRODUCT_CONTEXT('',#5,'mechanical');
#8=PRODUCT('930023_1','930023_1',$,(#7));
#9=PRODUCT_RELATED_PRODUCT_CATEGORY('part',$,(#8));
#10=PRODUCT_DEFINITION_FORMATION('',$,#8);
#11=PRODUCT_DEFINITION_CONTEXT('part definition',#5,'design');
#12=PRODUCT_DEFINITION('',$,#10,#11);
#18=(NAMED_UNIT(*)PLANE_ANGLE_UNIT()SI_UNIT($,.RADIAN.));
#19=DIMENSIONAL_EXPONENTS(0.0,0.0,0.0,0.0,0.0,0.0,0.0);
#20=PLANE_ANGLE_MEASURE_WITH_UNIT(PLANE_ANGLE_MEASURE(0.017453292500000),#18);
#24=(CONVERSION_BASED_UNIT('DEGREE',#20)NAMED_UNIT(#19)PLANE_ANGLE_UNIT());
#28=(NAMED_UNIT(*)SI_UNIT($,.STERADIAN.)SOLID_ANGLE_UNIT());
#32=(LENGTH_UNIT()NAMED_UNIT(*)SI_UNIT(.MILLI.,.METRE.));
#34=UNCERTAINTY_MEASURE_WITH_UNIT(LENGTH_MEASURE(0.010000000000000),#32,'DISTANCE_ACCURACY_VALUE','');
#36=(GEOMETRIC_REPRESENTATION_CONTEXT(3)GLOBAL_UNCERTAINTY_ASSIGNED_CONTEXT((#34))GLOBAL_UNIT_ASSIGNED_CONTEXT((#24,#28,#32))REPRESENTATION_CONTEXT('None','None'));
#37=AXIS2_PLACEMENT_3D('',#38,#39,#40);
#38=CARTESIAN_POINT('',(0.0,0.0,0.0));
#39=DIRECTION('',(0.0,0.0,1.0));
#40=DIRECTION('',(1.0,0.0,0.0));
#41=SHAPE_REPRESENTATION('',(#37),#36);
#42=PRODUCT_DEFINITION_SHAPE('','',#12);
#43=SHAPE_DEFINITION_REPRESENTATION(#42,#41);
#49=(NAMED_UNIT(*)PLANE_ANGLE_UNIT()SI_UNIT($,.RADIAN.));
#50=DIMENSIONAL_EXPONENTS(0.0,0.0,0.0,0.0,0.0,0.0,0.0);
#51=PLANE_ANGLE_MEASURE_WITH_UNIT(PLANE_ANGLE_MEASURE(0.017453292500000),#49);
#55=(CONVERSION_BASED_UNIT('DEGREE',#51)NAMED_UNIT(#50)PLANE_ANGLE_UNIT());
#59=(NAMED_UNIT(*)SI_UNIT($,.STERADIAN.)SOLID_ANGLE_UNIT());
#63=(LENGTH_UNIT()NAMED_UNIT(*)SI_UNIT(.MILLI.,.METRE.));
#65=UNCERTAINTY_MEASURE_WITH_UNIT(LENGTH_MEASURE(0.000001000000000),#63,'DISTANCE_ACCURACY_VALUE','');
#67=(GEOMETRIC_REPRESENTATION_CONTEXT(3)GLOBAL_UNCERTAINTY_ASSIGNED_CONTEXT((#65))GLOBAL_UNIT_ASSIGNED_CONTEXT((#55,#59,#63))REPRESENTATION_CONTEXT('','3D'));
#68=CARTESIAN_POINT('',(20.0,0.0,0.0));
#69=DIRECTION('',(0.0,-1.0,0.0));
#70=DIRECTION('',(0.0,0.0,-1.0));
#71=AXIS2_PLACEMENT_3D('',#68,#69,#70);
#72=PLANE('',#71);
#73=CARTESIAN_POINT('',(20.0,0.0,10.0));
#74=VERTEX_POINT('',#73);
#75=CARTESIAN_POINT('',(3.999999999999998,0.0,10.0));
#76=VERTEX_POINT('',#75);
#77=CARTESIAN_POINT('',(20.0,0.0,10.0));
#78=DIRECTION('',(-1.0,0.0,0.0));
#79=VECTOR('',#78,16.0);
#80=LINE('',#77,#79);
#81=EDGE_CURVE('',#74,#76,#80,.T.);
#82=ORIENTED_EDGE('',*,*,#81,.T.);
#83=CARTESIAN_POINT('',(3.999999999999998,0.0,0.0));
#84=VERTEX_POINT('',#83);
#85=CARTESIAN_POINT('',(3.999999999999998,0.0,0.0));
#86=DIRECTION('',(0.0,0.0,1.0));
#87=VECTOR('',#86,10.0);
#88=LINE('',#85,#87);
#89=EDGE_CURVE('',#84,#76,#88,.T.);
#90=ORIENTED_EDGE('',*,*,#89,.F.);
#91=CARTESIAN_POINT('',(20.0,0.0,0.0));
#92=VERTEX_POINT('',#91);
#93=CARTESIAN_POINT('',(20.0,0.0,0.0));
#94=DIRECTION('',(-1.0,0.0,0.0));
#95=VECTOR('',#94,16.0);
#96=LINE('',#93,#95);
#97=EDGE_CURVE('',#92,#84,#96,.T.);
#98=ORIENTED_EDGE('',*,*,#97,.F.);
#99=CARTESIAN_POINT('',(20.0,0.0,0.0));
#100=DIRECTION('',(0.0,0.0,1.0));
#101=VECTOR('',#100,10.0);
#102=LINE('',#99,#101);
#103=EDGE_CURVE('',#92,#74,#102,.T.);
#104=ORIENTED_EDGE('',*,*,#103,.T.);
#105=EDGE_LOOP('',(#82,#90,#98,#104));
#106=FACE_OUTER_BOUND('',#105,.T.);
#107=ADVANCED_FACE('',(#106),#72,.T.);
#108=CARTESIAN_POINT('',(3.999999999999998,0.0,0.0));
#109=DIRECTION('',(1.0,0.0,0.0));
#110=DIRECTION('',(0.0,0.0,-1.0));
#111=AXIS2_PLACEMENT_3D('',#108,#109,#110);
#112=PLANE('',#111);
#113=CARTESIAN_POINT('',(3.999999999999997,-3.500000000000000,10.0));
#114=VERTEX_POINT('',#113);
#115=CARTESIAN_POINT('',(3.999999999999998,0.0,10.0));
#116=DIRECTION('',(0.0,-1.0,0.0));
#117=VECTOR('',#116,3.500000000000000);
#118=LINE('',#115,#117);
#119=EDGE_CURVE('',#76,#114,#118,.T.);
#120=ORIENTED_EDGE('',*,*,#119,.T.);
#121=CARTESIAN_POINT('',(3.999999999999997,-3.500000000000000,0.0));
#122=VERTEX_POINT('',#121);
#123=CARTESIAN_POINT('',(3.999999999999997,-3.500000000000000,0.0));
#124=DIRECTION('',(0.0,0.0,1.0));
#125=VECTOR('',#124,10.0);
#126=LINE('',#123,#125);
#127=EDGE_CURVE('',#122,#114,#126,.T.);
#128=ORIENTED_EDGE('',*,*,#127,.F.);
#129=CARTESIAN_POINT('',(3.999999999999998,0.0,0.0));
#130=DIRECTION('',(0.0,-1.0,0.0));
#131=VECTOR('',#130,3.500000000000000);
#132=LINE('',#129,#131);
#133=EDGE_CURVE('',#84,#122,#132,.T.);
#134=ORIENTED_EDGE('',*,*,#133,.F.);
#135=ORIENTED_EDGE('',*,*,#89,.T.);
#136=EDGE_LOOP('',(#120,#128,#134,#135));
#137=FACE_OUTER_BOUND('',#136,.T.);
#138=ADVANCED_FACE('',(#137),#112,.T.);
#139=CARTESIAN_POINT('',(3.999999999999997,-3.500000000000000,0.0));
#140=DIRECTION('',(0.0,-1.0,0.0));
#141=DIRECTION('',(0.0,0.0,-1.0));
#142=AXIS2_PLACEMENT_3D('',#139,#140,#141);
#143=PLANE('',#142);
#144=CARTESIAN_POINT('',(-4.000000000000002,-3.500000000000000,10.0));
#145=VERTEX_POINT('',#144);
#146=CARTESIAN_POINT('',(3.999999999999997,-3.500000000000000,10.0));
#147=DIRECTION('',(-1.0,0.0,0.0));
#148=VECTOR('',#147,7.999999999999999);
#149=LINE('',#146,#148);
#150=EDGE_CURVE('',#114,#145,#149,.T.);
#151=ORIENTED_EDGE('',*,*,#150,.T.);
#152=CARTESIAN_POINT('',(-4.000000000000002,-3.500000000000000,0.0));
#153=VERTEX_POINT('',#152);
#154=CARTESIAN_POINT('',(-4.000000000000002,-3.500000000000000,0.0));
#155=DIRECTION('',(0.0,0.0,1.0));
#156=VECTOR('',#155,10.0);
#157=LINE('',#154,#156);
#158=EDGE_CURVE('',#153,#145,#157,.T.);
#159=ORIENTED_EDGE('',*,*,#158,.F.);
#160=CARTESIAN_POINT('',(3.999999999999997,-3.500000000000000,0.0));
#161=DIRECTION('',(-1.0,0.0,0.0));
#162=VECTOR('',#161,7.999999999999999);
#163=LINE('',#160,#162);
#164=EDGE_CURVE('',#122,#153,#163,.T.);
#165=ORIENTED_EDGE('',*,*,#164,.F.);
#166=ORIENTED_EDGE('',*,*,#127,.T.);
#167=EDGE_LOOP('',(#151,#159,#165,#166));
#168=FACE_OUTER_BOUND('',#167,.T.);
#169=ADVANCED_FACE('',(#168),#143,.T.);
#170=CARTESIAN_POINT('',(-4.000000000000002,-3.500000000000000,0.0));
#171=DIRECTION('',(-1.0,0.0,0.0));
#172=DIRECTION('',(0.0,0.0,1.0));
#173=AXIS2_PLACEMENT_3D('',#170,#171,#172);
#174=PLANE('',#173);
#175=CARTESIAN_POINT('',(-4.0,0.0,10.0));
#176=VERTEX_POINT('',#175);
#177=CARTESIAN_POINT('',(-4.000000000000001,-3.500000000000000,10.0));
#178=DIRECTION('',(0.0,1.0,0.0));
#179=VECTOR('',#178,3.500000000000000);
#180=LINE('',#177,#179);
#181=EDGE_CURVE('',#145,#176,#180,.T.);
#182=ORIENTED_EDGE('',*,*,#181,.T.);
#183=CARTESIAN_POINT('',(-4.0,0.0,0.0));
#184=VERTEX_POINT('',#183);
#185=CARTESIAN_POINT('',(-4.0,0.0,0.0));
#186=DIRECTION('',(0.0,0.0,1.0));
#187=VECTOR('',#186,10.0);
#188=LINE('',#185,#187);
#189=EDGE_CURVE('',#184,#176,#188,.T.);
#190=ORIENTED_EDGE('',*,*,#189,.F.);
#191=CARTESIAN_POINT('',(-4.000000000000001,-3.500000000000000,0.0));
#192=DIRECTION('',(0.0,1.0,0.0));
#193=VECTOR('',#192,3.500000000000000);
#194=LINE('',#191,#193);
#195=EDGE_CURVE('',#153,#184,#194,.T.);
#196=ORIENTED_EDGE('',*,*,#195,.F.);
#197=ORIENTED_EDGE('',*,*,#158,.T.);
#198=EDGE_LOOP('',(#182,#190,#196,#197));
#199=FACE_OUTER_BOUND('',#198,.T.);
#200=ADVANCED_FACE('',(#199),#174,.T.);
#201=CARTESIAN_POINT('',(-4.0,0.0,0.0));
#202=DIRECTION('',(0.0,-1.0,0.0));
#203=DIRECTION('',(0.0,0.0,-1.0));
#204=AXIS2_PLACEMENT_3D('',#201,#202,#203);
#205=PLANE('',#204);
#206=CARTESIAN_POINT('',(-20.0,0.0,10.0));
#207=VERTEX_POINT('',#206);
#208=CARTESIAN_POINT('',(-4.0,0.0,10.0));
#209=DIRECTION('',(-1.0,0.0,0.0));
#210=VECTOR('',#209,16.0);
#211=LINE('',#208,#210);
#212=EDGE_CURVE('',#176,#207,#211,.T.);
#213=ORIENTED_EDGE('',*,*,#212,.T.);
#214=CARTESIAN_POINT('',(-20.0,0.0,0.0));
#215=VERTEX_POINT('',#214);
#216=CARTESIAN_POINT('',(-20.0,0.0,0.0));
#217=DIRECTION('',(0.0,0.0,1.0));
#218=VECTOR('',#217,10.0);
#219=LINE('',#216,#218);
#220=EDGE_CURVE('',#215,#207,#219,.T.);
#221=ORIENTED_EDGE('',*,*,#220,.F.);
#222=CARTESIAN_POINT('',(-4.0,0.0,0.0));
#223=DIRECTION('',(-1.0,0.0,0.0));
#224=VECTOR('',#223,16.0);
#225=LINE('',#222,#224);
#226=EDGE_CURVE('',#184,#215,#225,.T.);
#227=ORIENTED_EDGE('',*,*,#226,.F.);
#228=ORIENTED_EDGE('',*,*,#189,.T.);
#229=EDGE_LOOP('',(#213,#221,#227,#228));
#230=FACE_OUTER_BOUND('',#229,.T.);
#231=ADVANCED_FACE('',(#230),#205,.T.);
#232=CARTESIAN_POINT('',(-20.0,0.0,0.0));
#233=DIRECTION('',(-1.0,0.0,0.0));
#234=DIRECTION('',(0.0,0.0,1.0));
#235=AXIS2_PLACEMENT_3D('',#232,#233,#234);
#236=PLANE('',#235);
#237=CARTESIAN_POINT('',(-20.0,6.000000000000001,10.0));
#238=VERTEX_POINT('',#237);
#239=CARTESIAN_POINT('',(-20.0,0.0,10.0));
#240=DIRECTION('',(0.0,1.0,0.0));
#241=VECTOR('',#240,6.000000000000001);
#242=LINE('',#239,#241);
#243=EDGE_CURVE('',#207,#238,#242,.T.);
#244=ORIENTED_EDGE('',*,*,#243,.T.);
#245=CARTESIAN_POINT('',(-20.0,6.000000000000001,0.0));
#246=VERTEX_POINT('',#245);
#247=CARTESIAN_POINT('',(-20.0,6.000000000000001,0.0));
#248=DIRECTION('',(0.0,0.0,1.0));
#249=VECTOR('',#248,10.0);
#250=LINE('',#247,#249);
#251=EDGE_CURVE('',#246,#238,#250,.T.);
#252=ORIENTED_EDGE('',*,*,#251,.F.);
#253=CARTESIAN_POINT('',(-20.0,0.0,0.0));
#254=DIRECTION('',(0.0,1.0,0.0));
#255=VECTOR('',#254,6.000000000000001);
#256=LINE('',#253,#255);
#257=EDGE_CURVE('',#215,#246,#256,.T.);
#258=ORIENTED_EDGE('',*,*,#257,.F.);
#259=ORIENTED_EDGE('',*,*,#220,.T.);
#260=EDGE_LOOP('',(#244,#252,#258,#259));
#261=FACE_OUTER_BOUND('',#260,.T.);
#262=ADVANCED_FACE('',(#261),#236,.T.);
#263=CARTESIAN_POINT('',(-20.0,6.000000000000001,0.0));
#264=DIRECTION('',(0.0,1.0,0.0));
#265=DIRECTION('',(0.0,0.0,1.0));
#266=AXIS2_PLACEMENT_3D('',#263,#264,#265);
#267=PLANE('',#266);
#268=CARTESIAN_POINT('',(-15.750000000000002,6.000000000000001,10.0));
#269=VERTEX_POINT('',#268);
#270=CARTESIAN_POINT('',(-20.0,6.000000000000001,10.0));
#271=DIRECTION('',(1.0,0.0,0.0));
#272=VECTOR('',#271,4.249999999999998);
#273=LINE('',#270,#272);
#274=EDGE_CURVE('',#238,#269,#273,.T.);
#275=ORIENTED_EDGE('',*,*,#274,.T.);
#276=CARTESIAN_POINT('',(-15.750000000000002,6.000000000000001,0.0));
#277=VERTEX_POINT('',#276);
#278=CARTESIAN_POINT('',(-15.750000000000002,6.000000000000001,0.0));
#279=DIRECTION('',(0.0,0.0,1.0));
#280=VECTOR('',#279,10.0);
#281=LINE('',#278,#280);
#282=EDGE_CURVE('',#277,#269,#281,.T.);
#283=ORIENTED_EDGE('',*,*,#282,.F.);
#284=CARTESIAN_POINT('',(-20.0,6.000000000000001,0.0));
#285=DIRECTION('',(1.0,0.0,0.0));
#286=VECTOR('',#285,4.249999999999998);
#287=LINE('',#284,#286);
#288=EDGE_CURVE('',#246,#277,#287,.T.);
#289=ORIENTED_EDGE('',*,*,#288,.F.);
#290=ORIENTED_EDGE('',*,*,#251,.T.);
#291=EDGE_LOOP('',(#275,#283,#289,#290));
#292=FACE_OUTER_BOUND('',#291,.T.);
#293=ADVANCED_FACE('',(#292),#267,.T.);
#294=CARTESIAN_POINT('',(-15.750000000000002,6.000000000000001,0.0));
#295=DIRECTION('',(1.0,0.0,0.0));
#296=DIRECTION('',(0.0,0.0,-1.0));
#297=AXIS2_PLACEMENT_3D('',#294,#295,#296);
#298=PLANE('',#297);
#299=CARTESIAN_POINT('',(-15.750000000000002,5.0,10.0));
#300=VERTEX_POINT('',#299);
#301=CARTESIAN_POINT('',(-15.750000000000002,6.000000000000001,10.0));
#302=DIRECTION('',(0.0,-1.0,0.0));
#303=VECTOR('',#302,1.000000000000001);
#304=LINE('',#301,#303);
#305=EDGE_CURVE('',#269,#300,#304,.T.);
#306=ORIENTED_EDGE('',*,*,#305,.T.);
#307=CARTESIAN_POINT('',(-15.750000000000002,5.0,0.0));
#308=VERTEX_POINT('',#307);
#309=CARTESIAN_POINT('',(-15.750000000000002,5.0,0.0));
#310=DIRECTION('',(0.0,0.0,1.0));
#311=VECTOR('',#310,10.0);
#312=LINE('',#309,#311);
#313=EDGE_CURVE('',#308,#300,#312,.T.);
#314=ORIENTED_EDGE('',*,*,#313,.F.);
#315=CARTESIAN_POINT('',(-15.750000000000002,6.000000000000001,0.0));
#316=DIRECTION('',(0.0,-1.0,0.0));
#317=VECTOR('',#316,1.000000000000001);
#318=LINE('',#315,#317);
#319=EDGE_CURVE('',#277,#308,#318,.T.);
#320=ORIENTED_EDGE('',*,*,#319,.F.);
#321=ORIENTED_EDGE('',*,*,#282,.T.);
#322=EDGE_LOOP('',(#306,#314,#320,#321));
#323=FACE_OUTER_BOUND('',#322,.T.);
#324=ADVANCED_FACE('',(#323),#298,.T.);
#325=CARTESIAN_POINT('',(-15.750000000000002,5.0,0.0));
#326=DIRECTION('',(0.0,1.0,0.0));
#327=DIRECTION('',(0.0,0.0,1.0));
#328=AXIS2_PLACEMENT_3D('',#325,#326,#327);
#329=PLANE('',#328);
#330=CARTESIAN_POINT('',(15.750000000000002,5.0,10.0));
#331=VERTEX_POINT('',#330);
#332=CARTESIAN_POINT('',(-15.750000000000002,5.0,10.0));
#333=DIRECTION('',(1.0,0.0,0.0));
#334=VECTOR('',#333,31.500000000000007);
#335=LINE('',#332,#334);
#336=EDGE_CURVE('',#300,#331,#335,.T.);
#337=ORIENTED_EDGE('',*,*,#336,.T.);
#338=CARTESIAN_POINT('',(15.750000000000002,5.0,0.0));
#339=VERTEX_POINT('',#338);
#340=CARTESIAN_POINT('',(15.750000000000002,5.0,0.0));
#341=DIRECTION('',(0.0,0.0,1.0));
#342=VECTOR('',#341,10.0);
#343=LINE('',#340,#342);
#344=EDGE_CURVE('',#339,#331,#343,.T.);
#345=ORIENTED_EDGE('',*,*,#344,.F.);
#346=CARTESIAN_POINT('',(-15.750000000000002,5.0,0.0));
#347=DIRECTION('',(1.0,0.0,0.0));
#348=VECTOR('',#347,31.500000000000007);
#349=LINE('',#346,#348);
#350=EDGE_CURVE('',#308,#339,#349,.T.);
#351=ORIENTED_EDGE('',*,*,#350,.F.);
#352=ORIENTED_EDGE('',*,*,#313,.T.);
#353=EDGE_LOOP('',(#337,#345,#351,#352));
#354=FACE_OUTER_BOUND('',#353,.T.);
#355=ADVANCED_FACE('',(#354),#329,.T.);
#356=CARTESIAN_POINT('',(15.750000000000002,5.0,0.0));
#357=DIRECTION('',(-1.0,0.0,0.0));
#358=DIRECTION('',(0.0,0.0,1.0));
#359=AXIS2_PLACEMENT_3D('',#356,#357,#358);
#360=PLANE('',#359);
#361=CARTESIAN_POINT('',(15.750000000000002,6.000000000000001,10.0));
#362=VERTEX_POINT('',#361);
#363=CARTESIAN_POINT('',(15.750000000000002,5.0,10.0));
#364=DIRECTION('',(0.0,1.0,0.0));
#365=VECTOR('',#364,1.000000000000001);
#366=LINE('',#363,#365);
#367=EDGE_CURVE('',#331,#362,#366,.T.);
#368=ORIENTED_EDGE('',*,*,#367,.T.);
#369=CARTESIAN_POINT('',(15.750000000000002,6.000000000000001,0.0));
#370=VERTEX_POINT('',#369);
#371=CARTESIAN_POINT('',(15.750000000000002,6.000000000000001,0.0));
#372=DIRECTION('',(0.0,0.0,1.0));
#373=VECTOR('',#372,10.0);
#374=LINE('',#371,#373);
#375=EDGE_CURVE('',#370,#362,#374,.T.);
#376=ORIENTED_EDGE('',*,*,#375,.F.);
#377=CARTESIAN_POINT('',(15.750000000000002,5.0,0.0));
#378=DIRECTION('',(0.0,1.0,0.0));
#379=VECTOR('',#378,1.000000000000001);
#380=LINE('',#377,#379);
#381=EDGE_CURVE('',#339,#370,#380,.T.);
#382=ORIENTED_EDGE('',*,*,#381,.F.);
#383=ORIENTED_EDGE('',*,*,#344,.T.);
#384=EDGE_LOOP('',(#368,#376,#382,#383));
#385=FACE_OUTER_BOUND('',#384,.T.);
#386=ADVANCED_FACE('',(#385),#360,.T.);
#387=CARTESIAN_POINT('',(15.750000000000002,6.000000000000001,0.0));
#388=DIRECTION('',(0.0,1.0,0.0));
#389=DIRECTION('',(0.0,0.0,1.0));
#390=AXIS2_PLACEMENT_3D('',#387,#388,#389);
#391=PLANE('',#390);
#392=CARTESIAN_POINT('',(20.0,6.000000000000001,10.0));
#393=VERTEX_POINT('',#392);
#394=CARTESIAN_POINT('',(15.750000000000002,6.000000000000001,10.0));
#395=DIRECTION('',(1.0,0.0,0.0));
#396=VECTOR('',#395,4.249999999999998);
#397=LINE('',#394,#396);
#398=EDGE_CURVE('',#362,#393,#397,.T.);
#399=ORIENTED_EDGE('',*,*,#398,.T.);
#400=CARTESIAN_POINT('',(20.0,6.000000000000001,0.0));
#401=VERTEX_POINT('',#400);
#402=CARTESIAN_POINT('',(20.0,6.000000000000001,0.0));
#403=DIRECTION('',(0.0,0.0,1.0));
#404=VECTOR('',#403,10.0);
#405=LINE('',#402,#404);
#406=EDGE_CURVE('',#401,#393,#405,.T.);
#407=ORIENTED_EDGE('',*,*,#406,.F.);
#408=CARTESIAN_POINT('',(15.750000000000002,6.000000000000001,0.0));
#409=DIRECTION('',(1.0,0.0,0.0));
#410=VECTOR('',#409,4.249999999999998);
#411=LINE('',#408,#410);
#412=EDGE_CURVE('',#370,#401,#411,.T.);
#413=ORIENTED_EDGE('',*,*,#412,.F.);
#414=ORIENTED_EDGE('',*,*,#375,.T.);
#415=EDGE_LOOP('',(#399,#407,#413,#414));
#416=FACE_OUTER_BOUND('',#415,.T.);
#417=ADVANCED_FACE('',(#416),#391,.T.);
#418=CARTESIAN_POINT('',(20.0,6.000000000000001,0.0));
#419=DIRECTION('',(1.0,0.0,0.0));
#420=DIRECTION('',(0.0,0.0,-1.0));
#421=AXIS2_PLACEMENT_3D('',#418,#419,#420);
#422=PLANE('',#421);
#423=CARTESIAN_POINT('',(20.0,6.000000000000001,10.0));
#424=DIRECTION('',(0.0,-1.0,0.0));
#425=VECTOR('',#424,6.000000000000001);
#426=LINE('',#423,#425);
#427=EDGE_CURVE('',#393,#74,#426,.T.);
#428=ORIENTED_EDGE('',*,*,#427,.T.);
#429=ORIENTED_EDGE('',*,*,#103,.F.);
#430=CARTESIAN_POINT('',(20.0,6.000000000000001,0.0));
#431=DIRECTION('',(0.0,-1.0,0.0));
#432=VECTOR('',#431,6.000000000000001);
#433=LINE('',#430,#432);
#434=EDGE_CURVE('',#401,#92,#433,.T.);
#435=ORIENTED_EDGE('',*,*,#434,.F.);
#436=ORIENTED_EDGE('',*,*,#406,.T.);
#437=EDGE_LOOP('',(#428,#429,#435,#436));
#438=FACE_OUTER_BOUND('',#437,.T.);
#439=ADVANCED_FACE('',(#438),#422,.T.);
#440=CARTESIAN_POINT('',(0.0,1.250000000000000,10.0));
#441=DIRECTION('',(0.0,0.0,1.0));
#442=DIRECTION('',(1.0,0.0,0.0));
#443=AXIS2_PLACEMENT_3D('',#440,#441,#442);
#444=PLANE('',#443);
#445=ORIENTED_EDGE('',*,*,#274,.F.);
#446=ORIENTED_EDGE('',*,*,#243,.F.);
#447=ORIENTED_EDGE('',*,*,#212,.F.);
#448=ORIENTED_EDGE('',*,*,#181,.F.);
#449=ORIENTED_EDGE('',*,*,#150,.F.);
#450=ORIENTED_EDGE('',*,*,#119,.F.);
#451=ORIENTED_EDGE('',*,*,#81,.F.);
#452=ORIENTED_EDGE('',*,*,#427,.F.);
#453=ORIENTED_EDGE('',*,*,#398,.F.);
#454=ORIENTED_EDGE('',*,*,#367,.F.);
#455=ORIENTED_EDGE('',*,*,#336,.F.);
#456=ORIENTED_EDGE('',*,*,#305,.F.);
#457=EDGE_LOOP('',(#445,#446,#447,#448,#449,#450,#451,#452,#453,#454,#455,#456));
#458=FACE_OUTER_BOUND('',#457,.T.);
#459=ADVANCED_FACE('',(#458),#444,.T.);
#460=CARTESIAN_POINT('',(0.0,1.250000000000000,0.0));
#461=DIRECTION('',(0.0,0.0,1.0));
#462=DIRECTION('',(1.0,0.0,0.0));
#463=AXIS2_PLACEMENT_3D('',#460,#461,#462);
#464=PLANE('',#463);
#465=ORIENTED_EDGE('',*,*,#288,.T.);
#466=ORIENTED_EDGE('',*,*,#319,.T.);
#467=ORIENTED_EDGE('',*,*,#350,.T.);
#468=ORIENTED_EDGE('',*,*,#381,.T.);
#469=ORIENTED_EDGE('',*,*,#412,.T.);
#470=ORIENTED_EDGE('',*,*,#434,.T.);
#471=ORIENTED_EDGE('',*,*,#97,.T.);
#472=ORIENTED_EDGE('',*,*,#133,.T.);
#473=ORIENTED_EDGE('',*,*,#164,.T.);
#474=ORIENTED_EDGE('',*,*,#195,.T.);
#475=ORIENTED_EDGE('',*,*,#226,.T.);
#476=ORIENTED_EDGE('',*,*,#257,.T.);
#477=EDGE_LOOP('',(#465,#466,#467,#468,#469,#470,#471,#472,#473,#474,#475,#476));
#478=FACE_OUTER_BOUND('',#477,.T.);
#479=ADVANCED_FACE('',(#478),#464,.F.);
#480=CLOSED_SHELL('',(#107,#138,#169,#200,#231,#262,#293,#324,#355,#386,#417,#439,#459,#479));
#481=MANIFOLD_SOLID_BREP('T\X2\011B\X0\leso1',#480);
#482=COLOUR_RGB('Plast (\X2\FFFD\X0\ern\X2\FFFD\X0\)',0.705882012844086,0.705882012844086,0.705882012844086);
#483=FILL_AREA_STYLE_COLOUR('Plast (\X2\FFFD\X0\ern\X2\FFFD\X0\)',#482);
#484=FILL_AREA_STYLE('Plast (\X2\FFFD\X0\ern\X2\FFFD\X0\)',(#483));
#485=SURFACE_STYLE_FILL_AREA(#484);
#486=SURFACE_SIDE_STYLE('Plast (\X2\FFFD\X0\ern\X2\FFFD\X0\)',(#485));
#487=SURFACE_STYLE_USAGE(.BOTH.,#486);
#488=PRESENTATION_STYLE_ASSIGNMENT((#487));
#489=STYLED_ITEM('',(#488),#481);
#490=MECHANICAL_DESIGN_GEOMETRIC_PRESENTATION_REPRESENTATION('',(#489),#36);
#491=ADVANCED_BREP_SHAPE_REPRESENTATION('ABSR',(#481),#36);
#492=SHAPE_REPRESENTATION_RELATIONSHIP('SRR','None',#491,#41);
ENDSEC;
END-ISO-10303-21;
