ISO-10303-21;
HEADER;
/****************************************************************
 * Generated by software with PDE/Lib inside                    *
 * PDElib Version v51a, created Mon 03/22/2010                  *
 * International Technegroup Inc. (www.iti-oh.com)              *
 ****************************************************************/
FILE_DESCRIPTION((''),'2;1');
FILE_NAME('D:\\P\X2\0159\X0\evod katalogu\\Pro WEB\\STEP\\P\S\askov\S\i dopravn\S\mky\\930023.stp','2010-09-12T19:30:30',('Jarda'),(''),'Autodesk Inventor 2010','Autodesk Inventor 2010','');
FILE_SCHEMA(('AUTOMOTIVE_DESIGN { 1 0 10303 214 1 1 1 1 }'));
ENDSEC;
DATA;
#5=APPLICATION_CONTEXT('automotive design');
#6=APPLICATION_PROTOCOL_DEFINITION('International Standard','automotive_design',2001,#5);
#7=PRODUCT_CONTEXT('',#5,'mechanical');
#8=PRODUCT('930023-10','930023-10',$,(#7));
#9=PRODUCT_RELATED_PRODUCT_CATEGORY('part',$,(#8));
#10=PRODUCT_DEFINITION_FORMATION('',$,#8);
#11=PRODUCT_DEFINITION_CONTEXT('part definition',#5,'design');
#12=PRODUCT_DEFINITION('',$,#10,#11);
#18=(NAMED_UNIT(*)PLANE_ANGLE_UNIT()SI_UNIT($,.RADIAN.));
#19=DIMENSIONAL_EXPONENTS(0.0,0.0,0.0,0.0,0.0,0.0,0.0);
#20=PLANE_ANGLE_MEASURE_WITH_UNIT(PLANE_ANGLE_MEASURE(0.017453292500000),#18);
#24=(CONVERSION_BASED_UNIT('DEGREE',#20)NAMED_UNIT(#19)PLANE_ANGLE_UNIT());
#28=(NAMED_UNIT(*)SI_UNIT($,.STERADIAN.)SOLID_ANGLE_UNIT());
#32=(LENGTH_UNIT()NAMED_UNIT(*)SI_UNIT(.MILLI.,.METRE.));
#34=UNCERTAINTY_MEASURE_WITH_UNIT(LENGTH_MEASURE(0.010000000000000),#32,'DISTANCE_ACCURACY_VALUE','');
#36=(GEOMETRIC_REPRESENTATION_CONTEXT(3)GLOBAL_UNCERTAINTY_ASSIGNED_CONTEXT((#34))GLOBAL_UNIT_ASSIGNED_CONTEXT((#24,#28,#32))REPRESENTATION_CONTEXT('None','None'));
#37=AXIS2_PLACEMENT_3D('',#38,#39,#40);
#38=CARTESIAN_POINT('',(0.0,0.0,0.0));
#39=DIRECTION('',(0.0,0.0,1.0));
#40=DIRECTION('',(1.0,0.0,0.0));
#41=SHAPE_REPRESENTATION('',(#37),#36);
#42=PRODUCT_DEFINITION_SHAPE('','',#12);
#43=SHAPE_DEFINITION_REPRESENTATION(#42,#41);
#49=(NAMED_UNIT(*)PLANE_ANGLE_UNIT()SI_UNIT($,.RADIAN.));
#50=DIMENSIONAL_EXPONENTS(0.0,0.0,0.0,0.0,0.0,0.0,0.0);
#51=PLANE_ANGLE_MEASURE_WITH_UNIT(PLANE_ANGLE_MEASURE(0.017453292500000),#49);
#55=(CONVERSION_BASED_UNIT('DEGREE',#51)NAMED_UNIT(#50)PLANE_ANGLE_UNIT());
#59=(NAMED_UNIT(*)SI_UNIT($,.STERADIAN.)SOLID_ANGLE_UNIT());
#63=(LENGTH_UNIT()NAMED_UNIT(*)SI_UNIT(.MILLI.,.METRE.));
#65=UNCERTAINTY_MEASURE_WITH_UNIT(LENGTH_MEASURE(0.000001000000000),#63,'DISTANCE_ACCURACY_VALUE','');
#67=(GEOMETRIC_REPRESENTATION_CONTEXT(3)GLOBAL_UNCERTAINTY_ASSIGNED_CONTEXT((#65))GLOBAL_UNIT_ASSIGNED_CONTEXT((#55,#59,#63))REPRESENTATION_CONTEXT('','3D'));
#68=CARTESIAN_POINT('',(-4.000000000000002,2.220446E-015,0.0));
#69=DIRECTION('',(0.0,-1.0,0.0));
#70=DIRECTION('',(0.0,0.0,-1.0));
#71=AXIS2_PLACEMENT_3D('',#68,#69,#70);
#72=PLANE('',#71);
#73=CARTESIAN_POINT('',(-4.000000000000002,2.220446E-015,10.0));
#74=VERTEX_POINT('',#73);
#75=CARTESIAN_POINT('',(-19.0,2.220446E-015,10.0));
#76=VERTEX_POINT('',#75);
#77=CARTESIAN_POINT('',(-4.000000000000002,2.220446E-015,10.0));
#78=DIRECTION('',(-1.0,0.0,0.0));
#79=VECTOR('',#78,14.999999999999998);
#80=LINE('',#77,#79);
#81=EDGE_CURVE('',#74,#76,#80,.T.);
#82=ORIENTED_EDGE('',*,*,#81,.T.);
#83=CARTESIAN_POINT('',(-19.0,2.220446E-015,0.0));
#84=VERTEX_POINT('',#83);
#85=CARTESIAN_POINT('',(-19.0,2.220446E-015,0.0));
#86=DIRECTION('',(0.0,0.0,1.0));
#87=VECTOR('',#86,10.0);
#88=LINE('',#85,#87);
#89=EDGE_CURVE('',#84,#76,#88,.T.);
#90=ORIENTED_EDGE('',*,*,#89,.F.);
#91=CARTESIAN_POINT('',(-4.000000000000002,2.220446E-015,0.0));
#92=VERTEX_POINT('',#91);
#93=CARTESIAN_POINT('',(-4.000000000000002,2.220446E-015,0.0));
#94=DIRECTION('',(-1.0,0.0,0.0));
#95=VECTOR('',#94,14.999999999999998);
#96=LINE('',#93,#95);
#97=EDGE_CURVE('',#92,#84,#96,.T.);
#98=ORIENTED_EDGE('',*,*,#97,.F.);
#99=CARTESIAN_POINT('',(-4.000000000000002,2.220446E-015,0.0));
#100=DIRECTION('',(0.0,0.0,1.0));
#101=VECTOR('',#100,10.0);
#102=LINE('',#99,#101);
#103=EDGE_CURVE('',#92,#74,#102,.T.);
#104=ORIENTED_EDGE('',*,*,#103,.T.);
#105=EDGE_LOOP('',(#82,#90,#98,#104));
#106=FACE_OUTER_BOUND('',#105,.T.);
#107=ADVANCED_FACE('',(#106),#72,.T.);
#108=CARTESIAN_POINT('',(-19.0,1.000000000000002,0.0));
#109=DIRECTION('',(0.0,0.0,1.0));
#110=DIRECTION('',(-1.0,0.0,0.0));
#111=AXIS2_PLACEMENT_3D('',#108,#109,#110);
#112=CYLINDRICAL_SURFACE('',#111,1.0);
#113=CARTESIAN_POINT('',(-20.0,1.000000000000002,10.0));
#114=VERTEX_POINT('',#113);
#115=CARTESIAN_POINT('',(-19.0,1.000000000000002,10.0));
#116=DIRECTION('',(0.0,0.0,-1.0));
#117=DIRECTION('',(-1.0,0.0,0.0));
#118=AXIS2_PLACEMENT_3D('',#115,#116,#117);
#119=CIRCLE('',#118,1.0);
#120=EDGE_CURVE('',#76,#114,#119,.T.);
#121=ORIENTED_EDGE('',*,*,#120,.T.);
#122=CARTESIAN_POINT('',(-20.0,1.000000000000002,0.0));
#123=VERTEX_POINT('',#122);
#124=CARTESIAN_POINT('',(-20.0,1.000000000000002,0.0));
#125=DIRECTION('',(0.0,0.0,1.0));
#126=VECTOR('',#125,10.0);
#127=LINE('',#124,#126);
#128=EDGE_CURVE('',#123,#114,#127,.T.);
#129=ORIENTED_EDGE('',*,*,#128,.F.);
#130=CARTESIAN_POINT('',(-19.0,1.000000000000002,0.0));
#131=DIRECTION('',(0.0,0.0,-1.0));
#132=DIRECTION('',(-1.0,0.0,0.0));
#133=AXIS2_PLACEMENT_3D('',#130,#131,#132);
#134=CIRCLE('',#133,1.0);
#135=EDGE_CURVE('',#84,#123,#134,.T.);
#136=ORIENTED_EDGE('',*,*,#135,.F.);
#137=ORIENTED_EDGE('',*,*,#89,.T.);
#138=EDGE_LOOP('',(#121,#129,#136,#137));
#139=FACE_OUTER_BOUND('',#138,.T.);
#140=ADVANCED_FACE('',(#139),#112,.T.);
#141=CARTESIAN_POINT('',(-20.0,1.000000000000002,0.0));
#142=DIRECTION('',(-1.0,0.0,0.0));
#143=DIRECTION('',(0.0,0.0,1.0));
#144=AXIS2_PLACEMENT_3D('',#141,#142,#143);
#145=PLANE('',#144);
#146=CARTESIAN_POINT('',(-20.0,6.000000000000002,10.0));
#147=VERTEX_POINT('',#146);
#148=CARTESIAN_POINT('',(-20.0,1.000000000000002,10.0));
#149=DIRECTION('',(0.0,1.0,0.0));
#150=VECTOR('',#149,5.000000000000001);
#151=LINE('',#148,#150);
#152=EDGE_CURVE('',#114,#147,#151,.T.);
#153=ORIENTED_EDGE('',*,*,#152,.T.);
#154=CARTESIAN_POINT('',(-20.0,6.000000000000002,0.0));
#155=VERTEX_POINT('',#154);
#156=CARTESIAN_POINT('',(-20.0,6.000000000000002,0.0));
#157=DIRECTION('',(0.0,0.0,1.0));
#158=VECTOR('',#157,10.0);
#159=LINE('',#156,#158);
#160=EDGE_CURVE('',#155,#147,#159,.T.);
#161=ORIENTED_EDGE('',*,*,#160,.F.);
#162=CARTESIAN_POINT('',(-20.0,1.000000000000002,0.0));
#163=DIRECTION('',(0.0,1.0,0.0));
#164=VECTOR('',#163,5.000000000000001);
#165=LINE('',#162,#164);
#166=EDGE_CURVE('',#123,#155,#165,.T.);
#167=ORIENTED_EDGE('',*,*,#166,.F.);
#168=ORIENTED_EDGE('',*,*,#128,.T.);
#169=EDGE_LOOP('',(#153,#161,#167,#168));
#170=FACE_OUTER_BOUND('',#169,.T.);
#171=ADVANCED_FACE('',(#170),#145,.T.);
#172=CARTESIAN_POINT('',(-20.0,6.000000000000002,0.0));
#173=DIRECTION('',(0.0,1.0,0.0));
#174=DIRECTION('',(0.0,0.0,1.0));
#175=AXIS2_PLACEMENT_3D('',#172,#173,#174);
#176=PLANE('',#175);
#177=CARTESIAN_POINT('',(-16.0,6.000000000000004,10.0));
#178=VERTEX_POINT('',#177);
#179=CARTESIAN_POINT('',(-20.0,6.000000000000002,10.0));
#180=DIRECTION('',(1.0,0.0,0.0));
#181=VECTOR('',#180,4.0);
#182=LINE('',#179,#181);
#183=EDGE_CURVE('',#147,#178,#182,.T.);
#184=ORIENTED_EDGE('',*,*,#183,.T.);
#185=CARTESIAN_POINT('',(-16.0,6.000000000000004,0.0));
#186=VERTEX_POINT('',#185);
#187=CARTESIAN_POINT('',(-16.0,6.000000000000004,0.0));
#188=DIRECTION('',(0.0,0.0,1.0));
#189=VECTOR('',#188,10.0);
#190=LINE('',#187,#189);
#191=EDGE_CURVE('',#186,#178,#190,.T.);
#192=ORIENTED_EDGE('',*,*,#191,.F.);
#193=CARTESIAN_POINT('',(-20.0,6.000000000000002,0.0));
#194=DIRECTION('',(1.0,0.0,0.0));
#195=VECTOR('',#194,4.0);
#196=LINE('',#193,#195);
#197=EDGE_CURVE('',#155,#186,#196,.T.);
#198=ORIENTED_EDGE('',*,*,#197,.F.);
#199=ORIENTED_EDGE('',*,*,#160,.T.);
#200=EDGE_LOOP('',(#184,#192,#198,#199));
#201=FACE_OUTER_BOUND('',#200,.T.);
#202=ADVANCED_FACE('',(#201),#176,.T.);
#203=CARTESIAN_POINT('',(-16.0,6.000000000000004,0.0));
#204=DIRECTION('',(1.0,0.0,0.0));
#205=DIRECTION('',(0.0,0.0,-1.0));
#206=AXIS2_PLACEMENT_3D('',#203,#204,#205);
#207=PLANE('',#206);
#208=CARTESIAN_POINT('',(-16.0,4.999999999999993,10.0));
#209=VERTEX_POINT('',#208);
#210=CARTESIAN_POINT('',(-16.0,6.000000000000004,10.0));
#211=DIRECTION('',(0.0,-1.0,0.0));
#212=VECTOR('',#211,1.000000000000011);
#213=LINE('',#210,#212);
#214=EDGE_CURVE('',#178,#209,#213,.T.);
#215=ORIENTED_EDGE('',*,*,#214,.T.);
#216=CARTESIAN_POINT('',(-16.0,4.999999999999993,0.0));
#217=VERTEX_POINT('',#216);
#218=CARTESIAN_POINT('',(-16.0,4.999999999999993,0.0));
#219=DIRECTION('',(0.0,0.0,1.0));
#220=VECTOR('',#219,10.0);
#221=LINE('',#218,#220);
#222=EDGE_CURVE('',#217,#209,#221,.T.);
#223=ORIENTED_EDGE('',*,*,#222,.F.);
#224=CARTESIAN_POINT('',(-16.0,6.000000000000004,0.0));
#225=DIRECTION('',(0.0,-1.0,0.0));
#226=VECTOR('',#225,1.000000000000011);
#227=LINE('',#224,#226);
#228=EDGE_CURVE('',#186,#217,#227,.T.);
#229=ORIENTED_EDGE('',*,*,#228,.F.);
#230=ORIENTED_EDGE('',*,*,#191,.T.);
#231=EDGE_LOOP('',(#215,#223,#229,#230));
#232=FACE_OUTER_BOUND('',#231,.T.);
#233=ADVANCED_FACE('',(#232),#207,.T.);
#234=CARTESIAN_POINT('',(-16.0,4.999999999999993,0.0));
#235=DIRECTION('',(0.0,1.0,0.0));
#236=DIRECTION('',(0.0,0.0,1.0));
#237=AXIS2_PLACEMENT_3D('',#234,#235,#236);
#238=PLANE('',#237);
#239=CARTESIAN_POINT('',(16.0,5.000000000000002,10.0));
#240=VERTEX_POINT('',#239);
#241=CARTESIAN_POINT('',(-16.0,4.999999999999994,10.0));
#242=DIRECTION('',(1.0,0.0,0.0));
#243=VECTOR('',#242,32.0);
#244=LINE('',#241,#243);
#245=EDGE_CURVE('',#209,#240,#244,.T.);
#246=ORIENTED_EDGE('',*,*,#245,.T.);
#247=CARTESIAN_POINT('',(16.0,5.000000000000002,0.0));
#248=VERTEX_POINT('',#247);
#249=CARTESIAN_POINT('',(16.0,5.000000000000002,0.0));
#250=DIRECTION('',(0.0,0.0,1.0));
#251=VECTOR('',#250,10.0);
#252=LINE('',#249,#251);
#253=EDGE_CURVE('',#248,#240,#252,.T.);
#254=ORIENTED_EDGE('',*,*,#253,.F.);
#255=CARTESIAN_POINT('',(-16.0,4.999999999999994,0.0));
#256=DIRECTION('',(1.0,0.0,0.0));
#257=VECTOR('',#256,32.0);
#258=LINE('',#255,#257);
#259=EDGE_CURVE('',#217,#248,#258,.T.);
#260=ORIENTED_EDGE('',*,*,#259,.F.);
#261=ORIENTED_EDGE('',*,*,#222,.T.);
#262=EDGE_LOOP('',(#246,#254,#260,#261));
#263=FACE_OUTER_BOUND('',#262,.T.);
#264=ADVANCED_FACE('',(#263),#238,.T.);
#265=CARTESIAN_POINT('',(16.0,5.000000000000002,0.0));
#266=DIRECTION('',(-1.0,0.0,0.0));
#267=DIRECTION('',(0.0,0.0,1.0));
#268=AXIS2_PLACEMENT_3D('',#265,#266,#267);
#269=PLANE('',#268);
#270=CARTESIAN_POINT('',(16.0,6.000000000000004,10.0));
#271=VERTEX_POINT('',#270);
#272=CARTESIAN_POINT('',(16.0,5.000000000000002,10.0));
#273=DIRECTION('',(0.0,1.0,0.0));
#274=VECTOR('',#273,1.000000000000003);
#275=LINE('',#272,#274);
#276=EDGE_CURVE('',#240,#271,#275,.T.);
#277=ORIENTED_EDGE('',*,*,#276,.T.);
#278=CARTESIAN_POINT('',(16.0,6.000000000000004,0.0));
#279=VERTEX_POINT('',#278);
#280=CARTESIAN_POINT('',(16.0,6.000000000000004,0.0));
#281=DIRECTION('',(0.0,0.0,1.0));
#282=VECTOR('',#281,10.0);
#283=LINE('',#280,#282);
#284=EDGE_CURVE('',#279,#271,#283,.T.);
#285=ORIENTED_EDGE('',*,*,#284,.F.);
#286=CARTESIAN_POINT('',(16.0,5.000000000000002,0.0));
#287=DIRECTION('',(0.0,1.0,0.0));
#288=VECTOR('',#287,1.000000000000003);
#289=LINE('',#286,#288);
#290=EDGE_CURVE('',#248,#279,#289,.T.);
#291=ORIENTED_EDGE('',*,*,#290,.F.);
#292=ORIENTED_EDGE('',*,*,#253,.T.);
#293=EDGE_LOOP('',(#277,#285,#291,#292));
#294=FACE_OUTER_BOUND('',#293,.T.);
#295=ADVANCED_FACE('',(#294),#269,.T.);
#296=CARTESIAN_POINT('',(16.0,6.000000000000004,0.0));
#297=DIRECTION('',(0.0,1.0,0.0));
#298=DIRECTION('',(0.0,0.0,1.0));
#299=AXIS2_PLACEMENT_3D('',#296,#297,#298);
#300=PLANE('',#299);
#301=CARTESIAN_POINT('',(20.0,6.000000000000004,10.0));
#302=VERTEX_POINT('',#301);
#303=CARTESIAN_POINT('',(16.0,6.000000000000004,10.0));
#304=DIRECTION('',(1.0,0.0,0.0));
#305=VECTOR('',#304,4.0);
#306=LINE('',#303,#305);
#307=EDGE_CURVE('',#271,#302,#306,.T.);
#308=ORIENTED_EDGE('',*,*,#307,.T.);
#309=CARTESIAN_POINT('',(20.0,6.000000000000004,0.0));
#310=VERTEX_POINT('',#309);
#311=CARTESIAN_POINT('',(20.0,6.000000000000004,0.0));
#312=DIRECTION('',(0.0,0.0,1.0));
#313=VECTOR('',#312,10.0);
#314=LINE('',#311,#313);
#315=EDGE_CURVE('',#310,#302,#314,.T.);
#316=ORIENTED_EDGE('',*,*,#315,.F.);
#317=CARTESIAN_POINT('',(16.0,6.000000000000004,0.0));
#318=DIRECTION('',(1.0,0.0,0.0));
#319=VECTOR('',#318,4.0);
#320=LINE('',#317,#319);
#321=EDGE_CURVE('',#279,#310,#320,.T.);
#322=ORIENTED_EDGE('',*,*,#321,.F.);
#323=ORIENTED_EDGE('',*,*,#284,.T.);
#324=EDGE_LOOP('',(#308,#316,#322,#323));
#325=FACE_OUTER_BOUND('',#324,.T.);
#326=ADVANCED_FACE('',(#325),#300,.T.);
#327=CARTESIAN_POINT('',(20.0,6.000000000000004,0.0));
#328=DIRECTION('',(1.0,0.0,0.0));
#329=DIRECTION('',(0.0,0.0,-1.0));
#330=AXIS2_PLACEMENT_3D('',#327,#328,#329);
#331=PLANE('',#330);
#332=CARTESIAN_POINT('',(20.0,1.000000000000005,10.0));
#333=VERTEX_POINT('',#332);
#334=CARTESIAN_POINT('',(20.0,6.000000000000004,10.0));
#335=DIRECTION('',(0.0,-1.0,0.0));
#336=VECTOR('',#335,4.999999999999999);
#337=LINE('',#334,#336);
#338=EDGE_CURVE('',#302,#333,#337,.T.);
#339=ORIENTED_EDGE('',*,*,#338,.T.);
#340=CARTESIAN_POINT('',(20.0,1.000000000000005,0.0));
#341=VERTEX_POINT('',#340);
#342=CARTESIAN_POINT('',(20.0,1.000000000000005,0.0));
#343=DIRECTION('',(0.0,0.0,1.0));
#344=VECTOR('',#343,10.0);
#345=LINE('',#342,#344);
#346=EDGE_CURVE('',#341,#333,#345,.T.);
#347=ORIENTED_EDGE('',*,*,#346,.F.);
#348=CARTESIAN_POINT('',(20.0,6.000000000000004,0.0));
#349=DIRECTION('',(0.0,-1.0,0.0));
#350=VECTOR('',#349,4.999999999999999);
#351=LINE('',#348,#350);
#352=EDGE_CURVE('',#310,#341,#351,.T.);
#353=ORIENTED_EDGE('',*,*,#352,.F.);
#354=ORIENTED_EDGE('',*,*,#315,.T.);
#355=EDGE_LOOP('',(#339,#347,#353,#354));
#356=FACE_OUTER_BOUND('',#355,.T.);
#357=ADVANCED_FACE('',(#356),#331,.T.);
#358=CARTESIAN_POINT('',(19.0,1.000000000000005,0.0));
#359=DIRECTION('',(0.0,0.0,1.0));
#360=DIRECTION('',(0.0,-1.0,0.0));
#361=AXIS2_PLACEMENT_3D('',#358,#359,#360);
#362=CYLINDRICAL_SURFACE('',#361,1.0);
#363=CARTESIAN_POINT('',(19.0,4.440892E-015,10.0));
#364=VERTEX_POINT('',#363);
#365=CARTESIAN_POINT('',(19.0,1.000000000000005,10.0));
#366=DIRECTION('',(0.0,0.0,-1.0));
#367=DIRECTION('',(0.0,-1.0,0.0));
#368=AXIS2_PLACEMENT_3D('',#365,#366,#367);
#369=CIRCLE('',#368,1.0);
#370=EDGE_CURVE('',#333,#364,#369,.T.);
#371=ORIENTED_EDGE('',*,*,#370,.T.);
#372=CARTESIAN_POINT('',(19.0,4.440892E-015,0.0));
#373=VERTEX_POINT('',#372);
#374=CARTESIAN_POINT('',(19.0,4.440892E-015,0.0));
#375=DIRECTION('',(0.0,0.0,1.0));
#376=VECTOR('',#375,10.0);
#377=LINE('',#374,#376);
#378=EDGE_CURVE('',#373,#364,#377,.T.);
#379=ORIENTED_EDGE('',*,*,#378,.F.);
#380=CARTESIAN_POINT('',(19.0,1.000000000000005,0.0));
#381=DIRECTION('',(0.0,0.0,-1.0));
#382=DIRECTION('',(0.0,-1.0,0.0));
#383=AXIS2_PLACEMENT_3D('',#380,#381,#382);
#384=CIRCLE('',#383,1.0);
#385=EDGE_CURVE('',#341,#373,#384,.T.);
#386=ORIENTED_EDGE('',*,*,#385,.F.);
#387=ORIENTED_EDGE('',*,*,#346,.T.);
#388=EDGE_LOOP('',(#371,#379,#386,#387));
#389=FACE_OUTER_BOUND('',#388,.T.);
#390=ADVANCED_FACE('',(#389),#362,.T.);
#391=CARTESIAN_POINT('',(19.0,4.440892E-015,0.0));
#392=DIRECTION('',(0.0,-1.0,0.0));
#393=DIRECTION('',(0.0,0.0,-1.0));
#394=AXIS2_PLACEMENT_3D('',#391,#392,#393);
#395=PLANE('',#394);
#396=CARTESIAN_POINT('',(3.999999999999999,0.0,10.0));
#397=VERTEX_POINT('',#396);
#398=CARTESIAN_POINT('',(19.0,4.408511E-015,10.0));
#399=DIRECTION('',(-1.0,0.0,0.0));
#400=VECTOR('',#399,15.0);
#401=LINE('',#398,#400);
#402=EDGE_CURVE('',#364,#397,#401,.T.);
#403=ORIENTED_EDGE('',*,*,#402,.T.);
#404=CARTESIAN_POINT('',(3.999999999999999,0.0,0.0));
#405=VERTEX_POINT('',#404);
#406=CARTESIAN_POINT('',(3.999999999999999,0.0,0.0));
#407=DIRECTION('',(0.0,0.0,1.0));
#408=VECTOR('',#407,10.0);
#409=LINE('',#406,#408);
#410=EDGE_CURVE('',#405,#397,#409,.T.);
#411=ORIENTED_EDGE('',*,*,#410,.F.);
#412=CARTESIAN_POINT('',(19.0,4.408511E-015,0.0));
#413=DIRECTION('',(-1.0,0.0,0.0));
#414=VECTOR('',#413,15.0);
#415=LINE('',#412,#414);
#416=EDGE_CURVE('',#373,#405,#415,.T.);
#417=ORIENTED_EDGE('',*,*,#416,.F.);
#418=ORIENTED_EDGE('',*,*,#378,.T.);
#419=EDGE_LOOP('',(#403,#411,#417,#418));
#420=FACE_OUTER_BOUND('',#419,.T.);
#421=ADVANCED_FACE('',(#420),#395,.T.);
#422=CARTESIAN_POINT('',(3.999999999999999,0.0,0.0));
#423=DIRECTION('',(1.0,0.0,0.0));
#424=DIRECTION('',(0.0,0.0,-1.0));
#425=AXIS2_PLACEMENT_3D('',#422,#423,#424);
#426=PLANE('',#425);
#427=CARTESIAN_POINT('',(4.0,-4.499999999999998,10.0));
#428=VERTEX_POINT('',#427);
#429=CARTESIAN_POINT('',(3.999999999999999,0.0,10.0));
#430=DIRECTION('',(0.0,-1.0,0.0));
#431=VECTOR('',#430,4.499999999999997);
#432=LINE('',#429,#431);
#433=EDGE_CURVE('',#397,#428,#432,.T.);
#434=ORIENTED_EDGE('',*,*,#433,.T.);
#435=CARTESIAN_POINT('',(4.0,-4.499999999999998,0.0));
#436=VERTEX_POINT('',#435);
#437=CARTESIAN_POINT('',(4.0,-4.499999999999998,0.0));
#438=DIRECTION('',(0.0,0.0,1.0));
#439=VECTOR('',#438,10.0);
#440=LINE('',#437,#439);
#441=EDGE_CURVE('',#436,#428,#440,.T.);
#442=ORIENTED_EDGE('',*,*,#441,.F.);
#443=CARTESIAN_POINT('',(3.999999999999999,0.0,0.0));
#444=DIRECTION('',(0.0,-1.0,0.0));
#445=VECTOR('',#444,4.499999999999997);
#446=LINE('',#443,#445);
#447=EDGE_CURVE('',#405,#436,#446,.T.);
#448=ORIENTED_EDGE('',*,*,#447,.F.);
#449=ORIENTED_EDGE('',*,*,#410,.T.);
#450=EDGE_LOOP('',(#434,#442,#448,#449));
#451=FACE_OUTER_BOUND('',#450,.T.);
#452=ADVANCED_FACE('',(#451),#426,.T.);
#453=CARTESIAN_POINT('',(4.0,-4.499999999999998,0.0));
#454=DIRECTION('',(0.0,1.0,0.0));
#455=DIRECTION('',(0.0,0.0,1.0));
#456=AXIS2_PLACEMENT_3D('',#453,#454,#455);
#457=PLANE('',#456);
#458=CARTESIAN_POINT('',(6.500000000000000,-4.499999999999997,10.0));
#459=VERTEX_POINT('',#458);
#460=CARTESIAN_POINT('',(4.0,-4.499999999999998,10.0));
#461=DIRECTION('',(1.0,0.0,0.0));
#462=VECTOR('',#461,2.500000000000000);
#463=LINE('',#460,#462);
#464=EDGE_CURVE('',#428,#459,#463,.T.);
#465=ORIENTED_EDGE('',*,*,#464,.T.);
#466=CARTESIAN_POINT('',(6.500000000000000,-4.499999999999997,0.0));
#467=VERTEX_POINT('',#466);
#468=CARTESIAN_POINT('',(6.500000000000000,-4.499999999999997,0.0));
#469=DIRECTION('',(0.0,0.0,1.0));
#470=VECTOR('',#469,10.0);
#471=LINE('',#468,#470);
#472=EDGE_CURVE('',#467,#459,#471,.T.);
#473=ORIENTED_EDGE('',*,*,#472,.F.);
#474=CARTESIAN_POINT('',(4.0,-4.499999999999998,0.0));
#475=DIRECTION('',(1.0,0.0,0.0));
#476=VECTOR('',#475,2.500000000000000);
#477=LINE('',#474,#476);
#478=EDGE_CURVE('',#436,#467,#477,.T.);
#479=ORIENTED_EDGE('',*,*,#478,.F.);
#480=ORIENTED_EDGE('',*,*,#441,.T.);
#481=EDGE_LOOP('',(#465,#473,#479,#480));
#482=FACE_OUTER_BOUND('',#481,.T.);
#483=ADVANCED_FACE('',(#482),#457,.T.);
#484=CARTESIAN_POINT('',(6.500000000000000,-4.499999999999997,0.0));
#485=DIRECTION('',(1.0,0.0,0.0));
#486=DIRECTION('',(0.0,0.0,-1.0));
#487=AXIS2_PLACEMENT_3D('',#484,#485,#486);
#488=PLANE('',#487);
#489=CARTESIAN_POINT('',(6.500000000000000,-7.999999999999996,10.0));
#490=VERTEX_POINT('',#489);
#491=CARTESIAN_POINT('',(6.500000000000000,-4.499999999999997,10.0));
#492=DIRECTION('',(0.0,-1.0,0.0));
#493=VECTOR('',#492,3.499999999999999);
#494=LINE('',#491,#493);
#495=EDGE_CURVE('',#459,#490,#494,.T.);
#496=ORIENTED_EDGE('',*,*,#495,.T.);
#497=CARTESIAN_POINT('',(6.500000000000000,-7.999999999999996,0.0));
#498=VERTEX_POINT('',#497);
#499=CARTESIAN_POINT('',(6.500000000000000,-7.999999999999996,0.0));
#500=DIRECTION('',(0.0,0.0,1.0));
#501=VECTOR('',#500,10.0);
#502=LINE('',#499,#501);
#503=EDGE_CURVE('',#498,#490,#502,.T.);
#504=ORIENTED_EDGE('',*,*,#503,.F.);
#505=CARTESIAN_POINT('',(6.500000000000000,-4.499999999999997,0.0));
#506=DIRECTION('',(0.0,-1.0,0.0));
#507=VECTOR('',#506,3.499999999999999);
#508=LINE('',#505,#507);
#509=EDGE_CURVE('',#467,#498,#508,.T.);
#510=ORIENTED_EDGE('',*,*,#509,.F.);
#511=ORIENTED_EDGE('',*,*,#472,.T.);
#512=EDGE_LOOP('',(#496,#504,#510,#511));
#513=FACE_OUTER_BOUND('',#512,.T.);
#514=ADVANCED_FACE('',(#513),#488,.T.);
#515=CARTESIAN_POINT('',(6.500000000000000,-7.999999999999996,0.0));
#516=DIRECTION('',(0.0,-1.0,0.0));
#517=DIRECTION('',(0.0,0.0,-1.0));
#518=AXIS2_PLACEMENT_3D('',#515,#516,#517);
#519=PLANE('',#518);
#520=CARTESIAN_POINT('',(-6.500000000000000,-7.999999999999998,10.0));
#521=VERTEX_POINT('',#520);
#522=CARTESIAN_POINT('',(6.500000000000000,-7.999999999999996,10.0));
#523=DIRECTION('',(-1.0,0.0,0.0));
#524=VECTOR('',#523,13.0);
#525=LINE('',#522,#524);
#526=EDGE_CURVE('',#490,#521,#525,.T.);
#527=ORIENTED_EDGE('',*,*,#526,.T.);
#528=CARTESIAN_POINT('',(-6.500000000000000,-7.999999999999998,0.0));
#529=VERTEX_POINT('',#528);
#530=CARTESIAN_POINT('',(-6.500000000000000,-7.999999999999998,0.0));
#531=DIRECTION('',(0.0,0.0,1.0));
#532=VECTOR('',#531,10.0);
#533=LINE('',#530,#532);
#534=EDGE_CURVE('',#529,#521,#533,.T.);
#535=ORIENTED_EDGE('',*,*,#534,.F.);
#536=CARTESIAN_POINT('',(6.500000000000000,-7.999999999999996,0.0));
#537=DIRECTION('',(-1.0,0.0,0.0));
#538=VECTOR('',#537,13.0);
#539=LINE('',#536,#538);
#540=EDGE_CURVE('',#498,#529,#539,.T.);
#541=ORIENTED_EDGE('',*,*,#540,.F.);
#542=ORIENTED_EDGE('',*,*,#503,.T.);
#543=EDGE_LOOP('',(#527,#535,#541,#542));
#544=FACE_OUTER_BOUND('',#543,.T.);
#545=ADVANCED_FACE('',(#544),#519,.T.);
#546=CARTESIAN_POINT('',(-6.500000000000000,-7.999999999999998,0.0));
#547=DIRECTION('',(-1.0,0.0,0.0));
#548=DIRECTION('',(0.0,0.0,1.0));
#549=AXIS2_PLACEMENT_3D('',#546,#547,#548);
#550=PLANE('',#549);
#551=CARTESIAN_POINT('',(-6.500000000000000,-4.499999999999998,10.0));
#552=VERTEX_POINT('',#551);
#553=CARTESIAN_POINT('',(-6.500000000000000,-7.999999999999998,10.0));
#554=DIRECTION('',(0.0,1.0,0.0));
#555=VECTOR('',#554,3.500000000000000);
#556=LINE('',#553,#555);
#557=EDGE_CURVE('',#521,#552,#556,.T.);
#558=ORIENTED_EDGE('',*,*,#557,.T.);
#559=CARTESIAN_POINT('',(-6.500000000000000,-4.499999999999998,0.0));
#560=VERTEX_POINT('',#559);
#561=CARTESIAN_POINT('',(-6.500000000000000,-4.499999999999998,0.0));
#562=DIRECTION('',(0.0,0.0,1.0));
#563=VECTOR('',#562,10.0);
#564=LINE('',#561,#563);
#565=EDGE_CURVE('',#560,#552,#564,.T.);
#566=ORIENTED_EDGE('',*,*,#565,.F.);
#567=CARTESIAN_POINT('',(-6.500000000000000,-7.999999999999998,0.0));
#568=DIRECTION('',(0.0,1.0,0.0));
#569=VECTOR('',#568,3.500000000000000);
#570=LINE('',#567,#569);
#571=EDGE_CURVE('',#529,#560,#570,.T.);
#572=ORIENTED_EDGE('',*,*,#571,.F.);
#573=ORIENTED_EDGE('',*,*,#534,.T.);
#574=EDGE_LOOP('',(#558,#566,#572,#573));
#575=FACE_OUTER_BOUND('',#574,.T.);
#576=ADVANCED_FACE('',(#575),#550,.T.);
#577=CARTESIAN_POINT('',(-6.500000000000000,-4.499999999999998,0.0));
#578=DIRECTION('',(0.0,1.0,0.0));
#579=DIRECTION('',(0.0,0.0,1.0));
#580=AXIS2_PLACEMENT_3D('',#577,#578,#579);
#581=PLANE('',#580);
#582=CARTESIAN_POINT('',(-4.0,-4.499999999999998,10.0));
#583=VERTEX_POINT('',#582);
#584=CARTESIAN_POINT('',(-6.500000000000000,-4.499999999999999,10.0));
#585=DIRECTION('',(1.0,0.0,0.0));
#586=VECTOR('',#585,2.500000000000000);
#587=LINE('',#584,#586);
#588=EDGE_CURVE('',#552,#583,#587,.T.);
#589=ORIENTED_EDGE('',*,*,#588,.T.);
#590=CARTESIAN_POINT('',(-4.0,-4.499999999999998,0.0));
#591=VERTEX_POINT('',#590);
#592=CARTESIAN_POINT('',(-4.0,-4.499999999999998,0.0));
#593=DIRECTION('',(0.0,0.0,1.0));
#594=VECTOR('',#593,10.0);
#595=LINE('',#592,#594);
#596=EDGE_CURVE('',#591,#583,#595,.T.);
#597=ORIENTED_EDGE('',*,*,#596,.F.);
#598=CARTESIAN_POINT('',(-6.500000000000000,-4.499999999999999,0.0));
#599=DIRECTION('',(1.0,0.0,0.0));
#600=VECTOR('',#599,2.500000000000000);
#601=LINE('',#598,#600);
#602=EDGE_CURVE('',#560,#591,#601,.T.);
#603=ORIENTED_EDGE('',*,*,#602,.F.);
#604=ORIENTED_EDGE('',*,*,#565,.T.);
#605=EDGE_LOOP('',(#589,#597,#603,#604));
#606=FACE_OUTER_BOUND('',#605,.T.);
#607=ADVANCED_FACE('',(#606),#581,.T.);
#608=CARTESIAN_POINT('',(-4.0,-4.499999999999998,0.0));
#609=DIRECTION('',(-1.0,0.0,0.0));
#610=DIRECTION('',(0.0,0.0,1.0));
#611=AXIS2_PLACEMENT_3D('',#608,#609,#610);
#612=PLANE('',#611);
#613=CARTESIAN_POINT('',(-4.000000000000001,-4.499999999999998,10.0));
#614=DIRECTION('',(0.0,1.0,0.0));
#615=VECTOR('',#614,4.500000000000000);
#616=LINE('',#613,#615);
#617=EDGE_CURVE('',#583,#74,#616,.T.);
#618=ORIENTED_EDGE('',*,*,#617,.T.);
#619=ORIENTED_EDGE('',*,*,#103,.F.);
#620=CARTESIAN_POINT('',(-4.000000000000001,-4.499999999999998,0.0));
#621=DIRECTION('',(0.0,1.0,0.0));
#622=VECTOR('',#621,4.500000000000000);
#623=LINE('',#620,#622);
#624=EDGE_CURVE('',#591,#92,#623,.T.);
#625=ORIENTED_EDGE('',*,*,#624,.F.);
#626=ORIENTED_EDGE('',*,*,#596,.T.);
#627=EDGE_LOOP('',(#618,#619,#625,#626));
#628=FACE_OUTER_BOUND('',#627,.T.);
#629=ADVANCED_FACE('',(#628),#612,.T.);
#630=CARTESIAN_POINT('',(0.0,-0.999999999999997,10.0));
#631=DIRECTION('',(0.0,0.0,1.0));
#632=DIRECTION('',(1.0,0.0,0.0));
#633=AXIS2_PLACEMENT_3D('',#630,#631,#632);
#634=PLANE('',#633);
#635=ORIENTED_EDGE('',*,*,#370,.F.);
#636=ORIENTED_EDGE('',*,*,#338,.F.);
#637=ORIENTED_EDGE('',*,*,#307,.F.);
#638=ORIENTED_EDGE('',*,*,#276,.F.);
#639=ORIENTED_EDGE('',*,*,#245,.F.);
#640=ORIENTED_EDGE('',*,*,#214,.F.);
#641=ORIENTED_EDGE('',*,*,#183,.F.);
#642=ORIENTED_EDGE('',*,*,#152,.F.);
#643=ORIENTED_EDGE('',*,*,#120,.F.);
#644=ORIENTED_EDGE('',*,*,#81,.F.);
#645=ORIENTED_EDGE('',*,*,#617,.F.);
#646=ORIENTED_EDGE('',*,*,#588,.F.);
#647=ORIENTED_EDGE('',*,*,#557,.F.);
#648=ORIENTED_EDGE('',*,*,#526,.F.);
#649=ORIENTED_EDGE('',*,*,#495,.F.);
#650=ORIENTED_EDGE('',*,*,#464,.F.);
#651=ORIENTED_EDGE('',*,*,#433,.F.);
#652=ORIENTED_EDGE('',*,*,#402,.F.);
#653=EDGE_LOOP('',(#635,#636,#637,#638,#639,#640,#641,#642,#643,#644,#645,#646,#647,#648,#649,#650,#651,#652));
#654=FACE_OUTER_BOUND('',#653,.T.);
#655=ADVANCED_FACE('',(#654),#634,.T.);
#656=CARTESIAN_POINT('',(0.0,-0.999999999999997,0.0));
#657=DIRECTION('',(0.0,0.0,1.0));
#658=DIRECTION('',(1.0,0.0,0.0));
#659=AXIS2_PLACEMENT_3D('',#656,#657,#658);
#660=PLANE('',#659);
#661=ORIENTED_EDGE('',*,*,#385,.T.);
#662=ORIENTED_EDGE('',*,*,#416,.T.);
#663=ORIENTED_EDGE('',*,*,#447,.T.);
#664=ORIENTED_EDGE('',*,*,#478,.T.);
#665=ORIENTED_EDGE('',*,*,#509,.T.);
#666=ORIENTED_EDGE('',*,*,#540,.T.);
#667=ORIENTED_EDGE('',*,*,#571,.T.);
#668=ORIENTED_EDGE('',*,*,#602,.T.);
#669=ORIENTED_EDGE('',*,*,#624,.T.);
#670=ORIENTED_EDGE('',*,*,#97,.T.);
#671=ORIENTED_EDGE('',*,*,#135,.T.);
#672=ORIENTED_EDGE('',*,*,#166,.T.);
#673=ORIENTED_EDGE('',*,*,#197,.T.);
#674=ORIENTED_EDGE('',*,*,#228,.T.);
#675=ORIENTED_EDGE('',*,*,#259,.T.);
#676=ORIENTED_EDGE('',*,*,#290,.T.);
#677=ORIENTED_EDGE('',*,*,#321,.T.);
#678=ORIENTED_EDGE('',*,*,#352,.T.);
#679=EDGE_LOOP('',(#661,#662,#663,#664,#665,#666,#667,#668,#669,#670,#671,#672,#673,#674,#675,#676,#677,#678));
#680=FACE_OUTER_BOUND('',#679,.T.);
#681=ADVANCED_FACE('',(#680),#660,.F.);
#682=CLOSED_SHELL('',(#107,#140,#171,#202,#233,#264,#295,#326,#357,#390,#421,#452,#483,#514,#545,#576,#607,#629,#655,#681));
#683=MANIFOLD_SOLID_BREP('T\X2\011B\X0\leso1',#682);
#684=COLOUR_RGB('Plast (\X2\FFFD\X0\ern\X2\FFFD\X0\)',0.705882012844086,0.705882012844086,0.705882012844086);
#685=FILL_AREA_STYLE_COLOUR('Plast (\X2\FFFD\X0\ern\X2\FFFD\X0\)',#684);
#686=FILL_AREA_STYLE('Plast (\X2\FFFD\X0\ern\X2\FFFD\X0\)',(#685));
#687=SURFACE_STYLE_FILL_AREA(#686);
#688=SURFACE_SIDE_STYLE('Plast (\X2\FFFD\X0\ern\X2\FFFD\X0\)',(#687));
#689=SURFACE_STYLE_USAGE(.BOTH.,#688);
#690=PRESENTATION_STYLE_ASSIGNMENT((#689));
#691=STYLED_ITEM('',(#690),#683);
#692=MECHANICAL_DESIGN_GEOMETRIC_PRESENTATION_REPRESENTATION('',(#691),#36);
#693=ADVANCED_BREP_SHAPE_REPRESENTATION('ABSR',(#683),#36);
#694=SHAPE_REPRESENTATION_RELATIONSHIP('SRR','None',#693,#41);
ENDSEC;
END-ISO-10303-21;
