ISO-10303-21;
HEADER;
/* Generated by software containing ST-Developer
 * from STEP Tools, Inc. (www.steptools.com) 
 */

FILE_DESCRIPTION(
/* description */ ('spojovaci hridel'),
/* implementation_level */ '2;1');

FILE_NAME(
/* name */ 
'D:\\VaultPracovni\\Zak\X\E1zky\\2013\\AlutecKK\\stp\\Pask.Dopravniky\\
944511.stp',
/* time_stamp */ '2013-12-17T13:55:18+01:00',
/* author */ ('AlutecKK'),
/* organization */ (''),
/* preprocessor_version */ 'ST-DEVELOPER v15.2',
/* originating_system */ 'Autodesk Inventor 2014',
/* authorisation */ '');

FILE_SCHEMA (('AUTOMOTIVE_DESIGN { 1 0 10303 214 3 1 1 }'));
ENDSEC;

DATA;
#10=SHAPE_REPRESENTATION_RELATIONSHIP('SRR','None',#275,#11);
#11=ADVANCED_BREP_SHAPE_REPRESENTATION($,(#148),#266);
#12=STYLED_ITEM($,(#283),#148);
#13=CONICAL_SURFACE($,#164,7.,44.9999999999999);
#14=CONICAL_SURFACE($,#167,7.,45.0000000000001);
#15=CONICAL_SURFACE($,#170,8.5,45.);
#16=CONICAL_SURFACE($,#174,8.49999999999999,45.0000000000002);
#17=PLANE($,#155);
#18=PLANE($,#162);
#19=PLANE($,#166);
#20=PLANE($,#169);
#21=CYLINDRICAL_SURFACE($,#153,7.5);
#22=CYLINDRICAL_SURFACE($,#160,7.5);
#23=CYLINDRICAL_SURFACE($,#172,9.);
#24=FACE_BOUND($,#49,.T.);
#25=FACE_BOUND($,#51,.T.);
#26=FACE_BOUND($,#53,.T.);
#27=FACE_BOUND($,#55,.T.);
#28=FACE_BOUND($,#57,.T.);
#29=FACE_BOUND($,#59,.T.);
#30=FACE_BOUND($,#61,.T.);
#31=FACE_BOUND($,#64,.T.);
#32=FACE_BOUND($,#67,.T.);
#33=FACE_BOUND($,#69,.T.);
#34=FACE_BOUND($,#71,.T.);
#35=FACE_OUTER_BOUND($,#48,.T.);
#36=FACE_OUTER_BOUND($,#50,.T.);
#37=FACE_OUTER_BOUND($,#52,.T.);
#38=FACE_OUTER_BOUND($,#54,.T.);
#39=FACE_OUTER_BOUND($,#56,.T.);
#40=FACE_OUTER_BOUND($,#58,.T.);
#41=FACE_OUTER_BOUND($,#60,.T.);
#42=FACE_OUTER_BOUND($,#62,.T.);
#43=FACE_OUTER_BOUND($,#63,.T.);
#44=FACE_OUTER_BOUND($,#65,.T.);
#45=FACE_OUTER_BOUND($,#66,.T.);
#46=FACE_OUTER_BOUND($,#68,.T.);
#47=FACE_OUTER_BOUND($,#70,.T.);
#48=EDGE_LOOP($,(#108));
#49=EDGE_LOOP($,(#109));
#50=EDGE_LOOP($,(#110));
#51=EDGE_LOOP($,(#111));
#52=EDGE_LOOP($,(#112));
#53=EDGE_LOOP($,(#113));
#54=EDGE_LOOP($,(#114));
#55=EDGE_LOOP($,(#115));
#56=EDGE_LOOP($,(#116));
#57=EDGE_LOOP($,(#117));
#58=EDGE_LOOP($,(#118));
#59=EDGE_LOOP($,(#119));
#60=EDGE_LOOP($,(#120));
#61=EDGE_LOOP($,(#121));
#62=EDGE_LOOP($,(#122));
#63=EDGE_LOOP($,(#123));
#64=EDGE_LOOP($,(#124));
#65=EDGE_LOOP($,(#125));
#66=EDGE_LOOP($,(#126));
#67=EDGE_LOOP($,(#127));
#68=EDGE_LOOP($,(#128));
#69=EDGE_LOOP($,(#129));
#70=EDGE_LOOP($,(#130));
#71=EDGE_LOOP($,(#131));
#72=CIRCLE($,#151,7.7);
#73=CIRCLE($,#152,7.5);
#74=CIRCLE($,#154,7.5);
#75=CIRCLE($,#156,7.99999999999999);
#76=CIRCLE($,#158,7.5);
#77=CIRCLE($,#159,7.7);
#78=CIRCLE($,#161,7.5);
#79=CIRCLE($,#163,8.);
#80=CIRCLE($,#165,6.5);
#81=CIRCLE($,#168,6.5);
#82=CIRCLE($,#171,9.);
#83=CIRCLE($,#173,9.);
#84=VERTEX_POINT($,#229);
#85=VERTEX_POINT($,#231);
#86=VERTEX_POINT($,#234);
#87=VERTEX_POINT($,#237);
#88=VERTEX_POINT($,#240);
#89=VERTEX_POINT($,#242);
#90=VERTEX_POINT($,#245);
#91=VERTEX_POINT($,#248);
#92=VERTEX_POINT($,#251);
#93=VERTEX_POINT($,#255);
#94=VERTEX_POINT($,#259);
#95=VERTEX_POINT($,#262);
#96=EDGE_CURVE($,#84,#84,#72,.T.);
#97=EDGE_CURVE($,#85,#85,#73,.T.);
#98=EDGE_CURVE($,#86,#86,#74,.T.);
#99=EDGE_CURVE($,#87,#87,#75,.T.);
#100=EDGE_CURVE($,#88,#88,#76,.T.);
#101=EDGE_CURVE($,#89,#89,#77,.T.);
#102=EDGE_CURVE($,#90,#90,#78,.T.);
#103=EDGE_CURVE($,#91,#91,#79,.T.);
#104=EDGE_CURVE($,#92,#92,#80,.T.);
#105=EDGE_CURVE($,#93,#93,#81,.T.);
#106=EDGE_CURVE($,#94,#94,#82,.T.);
#107=EDGE_CURVE($,#95,#95,#83,.T.);
#108=ORIENTED_EDGE($,*,*,#96,.T.);
#109=ORIENTED_EDGE($,*,*,#97,.T.);
#110=ORIENTED_EDGE($,*,*,#98,.F.);
#111=ORIENTED_EDGE($,*,*,#97,.F.);
#112=ORIENTED_EDGE($,*,*,#99,.F.);
#113=ORIENTED_EDGE($,*,*,#96,.F.);
#114=ORIENTED_EDGE($,*,*,#100,.T.);
#115=ORIENTED_EDGE($,*,*,#101,.T.);
#116=ORIENTED_EDGE($,*,*,#102,.F.);
#117=ORIENTED_EDGE($,*,*,#100,.F.);
#118=ORIENTED_EDGE($,*,*,#103,.F.);
#119=ORIENTED_EDGE($,*,*,#101,.F.);
#120=ORIENTED_EDGE($,*,*,#98,.T.);
#121=ORIENTED_EDGE($,*,*,#104,.T.);
#122=ORIENTED_EDGE($,*,*,#104,.F.);
#123=ORIENTED_EDGE($,*,*,#105,.T.);
#124=ORIENTED_EDGE($,*,*,#102,.T.);
#125=ORIENTED_EDGE($,*,*,#105,.F.);
#126=ORIENTED_EDGE($,*,*,#103,.T.);
#127=ORIENTED_EDGE($,*,*,#106,.T.);
#128=ORIENTED_EDGE($,*,*,#107,.F.);
#129=ORIENTED_EDGE($,*,*,#106,.F.);
#130=ORIENTED_EDGE($,*,*,#107,.T.);
#131=ORIENTED_EDGE($,*,*,#99,.T.);
#132=TOROIDAL_SURFACE($,#150,7.7,0.2);
#133=TOROIDAL_SURFACE($,#157,7.7,0.2);
#134=ADVANCED_FACE($,(#35,#24),#132,.F.);
#135=ADVANCED_FACE($,(#36,#25),#21,.T.);
#136=ADVANCED_FACE($,(#37,#26),#17,.T.);
#137=ADVANCED_FACE($,(#38,#27),#133,.F.);
#138=ADVANCED_FACE($,(#39,#28),#22,.T.);
#139=ADVANCED_FACE($,(#40,#29),#18,.T.);
#140=ADVANCED_FACE($,(#41,#30),#13,.T.);
#141=ADVANCED_FACE($,(#42),#19,.T.);
#142=ADVANCED_FACE($,(#43,#31),#14,.T.);
#143=ADVANCED_FACE($,(#44),#20,.T.);
#144=ADVANCED_FACE($,(#45,#32),#15,.T.);
#145=ADVANCED_FACE($,(#46,#33),#23,.T.);
#146=ADVANCED_FACE($,(#47,#34),#16,.T.);
#147=CLOSED_SHELL($,(#134,#135,#136,#137,#138,#139,#140,#141,#142,#143,
#144,#145,#146));
#148=MANIFOLD_SOLID_BREP('T\X2\011B\X0\leso1',#147);
#149=AXIS2_PLACEMENT_3D('placement',#227,#175,#176);
#150=AXIS2_PLACEMENT_3D($,#228,#177,#178);
#151=AXIS2_PLACEMENT_3D($,#230,#179,#180);
#152=AXIS2_PLACEMENT_3D($,#232,#181,#182);
#153=AXIS2_PLACEMENT_3D($,#233,#183,#184);
#154=AXIS2_PLACEMENT_3D($,#235,#185,#186);
#155=AXIS2_PLACEMENT_3D($,#236,#187,#188);
#156=AXIS2_PLACEMENT_3D($,#238,#189,#190);
#157=AXIS2_PLACEMENT_3D($,#239,#191,#192);
#158=AXIS2_PLACEMENT_3D($,#241,#193,#194);
#159=AXIS2_PLACEMENT_3D($,#243,#195,#196);
#160=AXIS2_PLACEMENT_3D($,#244,#197,#198);
#161=AXIS2_PLACEMENT_3D($,#246,#199,#200);
#162=AXIS2_PLACEMENT_3D($,#247,#201,#202);
#163=AXIS2_PLACEMENT_3D($,#249,#203,#204);
#164=AXIS2_PLACEMENT_3D($,#250,#205,#206);
#165=AXIS2_PLACEMENT_3D($,#252,#207,#208);
#166=AXIS2_PLACEMENT_3D($,#253,#209,#210);
#167=AXIS2_PLACEMENT_3D($,#254,#211,#212);
#168=AXIS2_PLACEMENT_3D($,#256,#213,#214);
#169=AXIS2_PLACEMENT_3D($,#257,#215,#216);
#170=AXIS2_PLACEMENT_3D($,#258,#217,#218);
#171=AXIS2_PLACEMENT_3D($,#260,#219,#220);
#172=AXIS2_PLACEMENT_3D($,#261,#221,#222);
#173=AXIS2_PLACEMENT_3D($,#263,#223,#224);
#174=AXIS2_PLACEMENT_3D($,#264,#225,#226);
#175=DIRECTION('axis',(0.,0.,1.));
#176=DIRECTION('refdir',(1.,0.,0.));
#177=DIRECTION('center_axis',(-1.,0.,0.));
#178=DIRECTION('ref_axis',(0.,0.,1.));
#179=DIRECTION('center_axis',(-1.,0.,0.));
#180=DIRECTION('ref_axis',(0.,1.,6.12323399573677E-017));
#181=DIRECTION('center_axis',(1.,0.,0.));
#182=DIRECTION('ref_axis',(0.,1.,6.12323399573677E-017));
#183=DIRECTION('center_axis',(-1.,0.,0.));
#184=DIRECTION('ref_axis',(0.,-1.,0.));
#185=DIRECTION('center_axis',(-1.,0.,0.));
#186=DIRECTION('ref_axis',(0.,1.,0.));
#187=DIRECTION('center_axis',(-1.,0.,0.));
#188=DIRECTION('ref_axis',(0.,0.,1.));
#189=DIRECTION('center_axis',(1.,0.,0.));
#190=DIRECTION('ref_axis',(0.,1.,0.));
#191=DIRECTION('center_axis',(-1.,0.,0.));
#192=DIRECTION('ref_axis',(0.,0.,1.));
#193=DIRECTION('center_axis',(-1.,0.,0.));
#194=DIRECTION('ref_axis',(0.,1.,6.12323399573676E-017));
#195=DIRECTION('center_axis',(1.,0.,0.));
#196=DIRECTION('ref_axis',(0.,1.,6.12323399573677E-017));
#197=DIRECTION('center_axis',(-1.,0.,0.));
#198=DIRECTION('ref_axis',(0.,-1.,0.));
#199=DIRECTION('center_axis',(1.,0.,0.));
#200=DIRECTION('ref_axis',(0.,1.,0.));
#201=DIRECTION('center_axis',(1.,0.,0.));
#202=DIRECTION('ref_axis',(0.,0.,-1.));
#203=DIRECTION('center_axis',(-1.,0.,0.));
#204=DIRECTION('ref_axis',(0.,1.,0.));
#205=DIRECTION('center_axis',(1.,0.,0.));
#206=DIRECTION('ref_axis',(0.,1.,0.));
#207=DIRECTION('center_axis',(1.,0.,0.));
#208=DIRECTION('ref_axis',(0.,1.,0.));
#209=DIRECTION('center_axis',(-1.,0.,0.));
#210=DIRECTION('ref_axis',(0.,0.,1.));
#211=DIRECTION('center_axis',(-1.,0.,0.));
#212=DIRECTION('ref_axis',(0.,1.,0.));
#213=DIRECTION('center_axis',(-1.,0.,0.));
#214=DIRECTION('ref_axis',(0.,1.,0.));
#215=DIRECTION('center_axis',(1.,0.,0.));
#216=DIRECTION('ref_axis',(0.,0.,-1.));
#217=DIRECTION('center_axis',(-1.,0.,0.));
#218=DIRECTION('ref_axis',(0.,1.,0.));
#219=DIRECTION('center_axis',(1.,0.,0.));
#220=DIRECTION('ref_axis',(0.,1.,0.));
#221=DIRECTION('center_axis',(-1.,0.,0.));
#222=DIRECTION('ref_axis',(0.,-1.,0.));
#223=DIRECTION('center_axis',(-1.,0.,0.));
#224=DIRECTION('ref_axis',(0.,1.,0.));
#225=DIRECTION('center_axis',(1.,0.,0.));
#226=DIRECTION('ref_axis',(0.,1.,0.));
#227=CARTESIAN_POINT('',(0.,0.,0.));
#228=CARTESIAN_POINT('Origin',(14.8,0.,0.));
#229=CARTESIAN_POINT('',(15.,-7.7,4.71489017671731E-016));
#230=CARTESIAN_POINT('Origin',(15.,0.,0.));
#231=CARTESIAN_POINT('',(14.8,-7.5,-1.37772764904077E-015));
#232=CARTESIAN_POINT('Origin',(14.8,0.,0.));
#233=CARTESIAN_POINT('Origin',(7.5,0.,0.));
#234=CARTESIAN_POINT('',(1.,-7.5,9.18485099360515E-016));
#235=CARTESIAN_POINT('Origin',(1.,0.,0.));
#236=CARTESIAN_POINT('Origin',(15.,-7.5,0.));
#237=CARTESIAN_POINT('',(15.,-7.99999999999999,-9.79717439317881E-016));
#238=CARTESIAN_POINT('Origin',(15.,0.,0.));
#239=CARTESIAN_POINT('Origin',(135.2,0.,0.));
#240=CARTESIAN_POINT('',(135.2,-7.5,4.59242549680257E-016));
#241=CARTESIAN_POINT('Origin',(135.2,0.,0.));
#242=CARTESIAN_POINT('',(135.,-7.7,-1.41446705301519E-015));
#243=CARTESIAN_POINT('Origin',(135.,0.,0.));
#244=CARTESIAN_POINT('Origin',(142.5,0.,0.));
#245=CARTESIAN_POINT('',(149.,-7.5,-9.18485099360515E-016));
#246=CARTESIAN_POINT('Origin',(149.,0.,0.));
#247=CARTESIAN_POINT('Origin',(135.,-9.,0.));
#248=CARTESIAN_POINT('',(135.,-8.,9.79717439317883E-016));
#249=CARTESIAN_POINT('Origin',(135.,0.,0.));
#250=CARTESIAN_POINT('Origin',(0.5,0.,0.));
#251=CARTESIAN_POINT('',(0.,-6.5,-7.9602041944578E-016));
#252=CARTESIAN_POINT('Origin',(0.,0.,0.));
#253=CARTESIAN_POINT('Origin',(0.,0.,0.));
#254=CARTESIAN_POINT('Origin',(149.5,0.,0.));
#255=CARTESIAN_POINT('',(150.,-6.5,7.9602041944578E-016));
#256=CARTESIAN_POINT('Origin',(150.,0.,0.));
#257=CARTESIAN_POINT('Origin',(150.,-7.5,0.));
#258=CARTESIAN_POINT('Origin',(134.5,0.,0.));
#259=CARTESIAN_POINT('',(134.,-9.,-1.10218211923262E-015));
#260=CARTESIAN_POINT('Origin',(134.,0.,0.));
#261=CARTESIAN_POINT('Origin',(75.,0.,0.));
#262=CARTESIAN_POINT('',(16.,-9.,1.10218211923262E-015));
#263=CARTESIAN_POINT('Origin',(16.,0.,0.));
#264=CARTESIAN_POINT('Origin',(15.5,0.,0.));
#265=UNCERTAINTY_MEASURE_WITH_UNIT(LENGTH_MEASURE(0.01),#267,
'DISTANCE_ACCURACY_VALUE',
'Maximum model space distance between geometric entities at asserted c
onnectivities');
#266=(
GEOMETRIC_REPRESENTATION_CONTEXT(3)
GLOBAL_UNCERTAINTY_ASSIGNED_CONTEXT((#265))
GLOBAL_UNIT_ASSIGNED_CONTEXT((#267,#270,#268))
REPRESENTATION_CONTEXT('','3D')
);
#267=(
LENGTH_UNIT()
NAMED_UNIT(*)
SI_UNIT(.MILLI.,.METRE.)
);
#268=(
NAMED_UNIT(*)
SI_UNIT($,.STERADIAN.)
SOLID_ANGLE_UNIT()
);
#269=DIMENSIONAL_EXPONENTS(0.,0.,0.,0.,0.,0.,0.);
#270=(
CONVERSION_BASED_UNIT('degree',#272)
NAMED_UNIT(#269)
PLANE_ANGLE_UNIT()
);
#271=(
NAMED_UNIT(*)
PLANE_ANGLE_UNIT()
SI_UNIT($,.RADIAN.)
);
#272=PLANE_ANGLE_MEASURE_WITH_UNIT(PLANE_ANGLE_MEASURE(0.01745329252),#271);
#273=SHAPE_DEFINITION_REPRESENTATION(#274,#275);
#274=PRODUCT_DEFINITION_SHAPE('',$,#277);
#275=SHAPE_REPRESENTATION('',(#149),#266);
#276=PRODUCT_DEFINITION_CONTEXT('3D Mechanical Parts',#280,'design');
#277=PRODUCT_DEFINITION('944511','944511',#278,#276);
#278=PRODUCT_DEFINITION_FORMATION('',$,#282);
#279=APPLICATION_PROTOCOL_DEFINITION('international standard',
'automotive_design',2009,#280);
#280=APPLICATION_CONTEXT(
'Core Data for Automotive Mechanical Design Process');
#281=PRODUCT_CONTEXT('3D Mechanical Parts',#280,'mechanical');
#282=PRODUCT('944511','944511',$,(#281));
#283=PRESENTATION_STYLE_ASSIGNMENT((#284));
#284=SURFACE_STYLE_USAGE(.BOTH.,#285);
#285=SURFACE_SIDE_STYLE($,(#286));
#286=SURFACE_STYLE_FILL_AREA(#287);
#287=FILL_AREA_STYLE($,(#288));
#288=FILL_AREA_STYLE_COLOUR($,#289);
#289=COLOUR_RGB('',0.749019607843137,0.749019607843137,0.749019607843137);
ENDSEC;
END-ISO-10303-21;
