ISO-10303-21;
HEADER;
/* Generated by software containing ST-Developer
 * from STEP Tools, Inc. (www.steptools.com) 
 */

FILE_DESCRIPTION(
/* description */ ('Spona '),
/* implementation_level */ '2;1');

FILE_NAME(
/* name */ 
'D:\\VaultPracovni\\Zak\X\E1zky\\P\X2\015900ED\X0\slu\X2\0161\X0\enstv
\X\ED k profil\X2\016F\X0\m\\Trubkov\X\FD syst\X\E9m\\Kompleta\X2\010D\X0\n
\X\ED dopl\X2\0148\X0\ky\\350014\\350014.stp',
/* time_stamp */ '2019-04-13T12:42:48+02:00',
/* author */ ('Fiala'),
/* organization */ ('Alutec K&K'),
/* preprocessor_version */ 'ST-DEVELOPER v17',
/* originating_system */ 'Autodesk Inventor 2018',
/* authorisation */ '');

FILE_SCHEMA (('AUTOMOTIVE_DESIGN { 1 0 10303 214 3 1 1 }'));
ENDSEC;

DATA;
#10=MECHANICAL_DESIGN_GEOMETRIC_PRESENTATION_REPRESENTATION('',(#13),#635);
#11=SHAPE_REPRESENTATION_RELATIONSHIP('SRR','None',#642,#12);
#12=ADVANCED_BREP_SHAPE_REPRESENTATION('',(#14),#634);
#13=STYLED_ITEM('',(#651),#14);
#14=MANIFOLD_SOLID_BREP('T\X2\011B\X0\leso2',#363);
#15=FACE_BOUND('',#51,.T.);
#16=FACE_BOUND('',#57,.T.);
#17=FACE_BOUND('',#60,.T.);
#18=FACE_BOUND('',#67,.T.);
#19=FACE_BOUND('',#69,.T.);
#20=FACE_BOUND('',#70,.T.);
#21=PLANE('',#390);
#22=PLANE('',#396);
#23=PLANE('',#400);
#24=PLANE('',#401);
#25=PLANE('',#407);
#26=PLANE('',#413);
#27=PLANE('',#416);
#28=PLANE('',#418);
#29=PLANE('',#419);
#30=FACE_OUTER_BOUND('',#48,.T.);
#31=FACE_OUTER_BOUND('',#49,.T.);
#32=FACE_OUTER_BOUND('',#50,.T.);
#33=FACE_OUTER_BOUND('',#52,.T.);
#34=FACE_OUTER_BOUND('',#53,.T.);
#35=FACE_OUTER_BOUND('',#54,.T.);
#36=FACE_OUTER_BOUND('',#55,.T.);
#37=FACE_OUTER_BOUND('',#56,.T.);
#38=FACE_OUTER_BOUND('',#58,.T.);
#39=FACE_OUTER_BOUND('',#59,.T.);
#40=FACE_OUTER_BOUND('',#61,.T.);
#41=FACE_OUTER_BOUND('',#62,.T.);
#42=FACE_OUTER_BOUND('',#63,.T.);
#43=FACE_OUTER_BOUND('',#64,.T.);
#44=FACE_OUTER_BOUND('',#65,.T.);
#45=FACE_OUTER_BOUND('',#66,.T.);
#46=FACE_OUTER_BOUND('',#68,.T.);
#47=FACE_OUTER_BOUND('',#71,.T.);
#48=EDGE_LOOP('',(#236,#237,#238,#239,#240));
#49=EDGE_LOOP('',(#241,#242,#243,#244));
#50=EDGE_LOOP('',(#245,#246,#247,#248,#249,#250));
#51=EDGE_LOOP('',(#251));
#52=EDGE_LOOP('',(#252,#253,#254,#255));
#53=EDGE_LOOP('',(#256,#257,#258,#259));
#54=EDGE_LOOP('',(#260,#261,#262,#263));
#55=EDGE_LOOP('',(#264,#265,#266,#267));
#56=EDGE_LOOP('',(#268,#269,#270,#271,#272,#273,#274,#275));
#57=EDGE_LOOP('',(#276,#277,#278,#279));
#58=EDGE_LOOP('',(#280,#281,#282,#283));
#59=EDGE_LOOP('',(#284,#285,#286,#287,#288,#289));
#60=EDGE_LOOP('',(#290,#291));
#61=EDGE_LOOP('',(#292,#293,#294,#295));
#62=EDGE_LOOP('',(#296,#297,#298,#299));
#63=EDGE_LOOP('',(#300,#301,#302,#303));
#64=EDGE_LOOP('',(#304,#305,#306,#307));
#65=EDGE_LOOP('',(#308,#309,#310,#311,#312));
#66=EDGE_LOOP('',(#313,#314,#315,#316,#317,#318));
#67=EDGE_LOOP('',(#319,#320));
#68=EDGE_LOOP('',(#321,#322,#323,#324,#325,#326));
#69=EDGE_LOOP('',(#327));
#70=EDGE_LOOP('',(#328,#329,#330,#331));
#71=EDGE_LOOP('',(#332,#333,#334,#335));
#72=LINE('',#536,#102);
#73=LINE('',#543,#103);
#74=LINE('',#546,#104);
#75=LINE('',#549,#105);
#76=LINE('',#551,#106);
#77=LINE('',#553,#107);
#78=LINE('',#556,#108);
#79=LINE('',#564,#109);
#80=LINE('',#567,#110);
#81=LINE('',#569,#111);
#82=LINE('',#570,#112);
#83=LINE('',#576,#113);
#84=LINE('',#579,#114);
#85=LINE('',#581,#115);
#86=LINE('',#582,#116);
#87=LINE('',#585,#117);
#88=LINE('',#591,#118);
#89=LINE('',#594,#119);
#90=LINE('',#597,#120);
#91=LINE('',#601,#121);
#92=LINE('',#604,#122);
#93=LINE('',#611,#123);
#94=LINE('',#614,#124);
#95=LINE('',#617,#125);
#96=LINE('',#618,#126);
#97=LINE('',#622,#127);
#98=LINE('',#624,#128);
#99=LINE('',#626,#129);
#100=LINE('',#628,#130);
#101=LINE('',#630,#131);
#102=VECTOR('',#429,3.5);
#103=VECTOR('',#436,10.);
#104=VECTOR('',#439,10.);
#105=VECTOR('',#442,10.);
#106=VECTOR('',#443,10.);
#107=VECTOR('',#444,10.);
#108=VECTOR('',#447,10.);
#109=VECTOR('',#454,10.);
#110=VECTOR('',#457,10.);
#111=VECTOR('',#460,10.);
#112=VECTOR('',#461,10.);
#113=VECTOR('',#468,10.);
#114=VECTOR('',#471,10.);
#115=VECTOR('',#472,10.);
#116=VECTOR('',#473,10.);
#117=VECTOR('',#476,10.);
#118=VECTOR('',#481,10.);
#119=VECTOR('',#484,10.);
#120=VECTOR('',#487,10.);
#121=VECTOR('',#492,10.);
#122=VECTOR('',#495,10.);
#123=VECTOR('',#502,10.);
#124=VECTOR('',#505,10.);
#125=VECTOR('',#508,10.);
#126=VECTOR('',#509,10.);
#127=VECTOR('',#514,10.);
#128=VECTOR('',#517,10.);
#129=VECTOR('',#520,14.);
#130=VECTOR('',#523,10.);
#131=VECTOR('',#526,10.);
#132=CIRCLE('',#384,3.5);
#133=CIRCLE('',#385,3.5);
#134=CIRCLE('',#386,3.5);
#135=CIRCLE('',#388,4.);
#136=CIRCLE('',#389,4.);
#137=CIRCLE('',#391,16.5);
#138=CIRCLE('',#392,14.);
#139=CIRCLE('',#394,4.);
#140=CIRCLE('',#395,4.);
#141=CIRCLE('',#398,4.);
#142=CIRCLE('',#399,4.);
#143=CIRCLE('',#402,4.);
#144=CIRCLE('',#403,3.);
#145=CIRCLE('',#404,3.);
#146=CIRCLE('',#406,4.);
#147=CIRCLE('',#408,16.5);
#148=CIRCLE('',#409,14.);
#149=CIRCLE('',#410,14.);
#150=CIRCLE('',#412,3.);
#151=CIRCLE('',#415,3.);
#152=VERTEX_POINT('',#531);
#153=VERTEX_POINT('',#532);
#154=VERTEX_POINT('',#535);
#155=VERTEX_POINT('',#539);
#156=VERTEX_POINT('',#540);
#157=VERTEX_POINT('',#542);
#158=VERTEX_POINT('',#544);
#159=VERTEX_POINT('',#548);
#160=VERTEX_POINT('',#550);
#161=VERTEX_POINT('',#552);
#162=VERTEX_POINT('',#554);
#163=VERTEX_POINT('',#557);
#164=VERTEX_POINT('',#560);
#165=VERTEX_POINT('',#561);
#166=VERTEX_POINT('',#563);
#167=VERTEX_POINT('',#565);
#168=VERTEX_POINT('',#572);
#169=VERTEX_POINT('',#574);
#170=VERTEX_POINT('',#578);
#171=VERTEX_POINT('',#580);
#172=VERTEX_POINT('',#584);
#173=VERTEX_POINT('',#587);
#174=VERTEX_POINT('',#588);
#175=VERTEX_POINT('',#590);
#176=VERTEX_POINT('',#592);
#177=VERTEX_POINT('',#596);
#178=VERTEX_POINT('',#600);
#179=VERTEX_POINT('',#602);
#180=VERTEX_POINT('',#605);
#181=VERTEX_POINT('',#606);
#182=VERTEX_POINT('',#610);
#183=VERTEX_POINT('',#612);
#184=VERTEX_POINT('',#616);
#185=VERTEX_POINT('',#620);
#186=EDGE_CURVE('',#152,#153,#132,.T.);
#187=EDGE_CURVE('',#153,#152,#133,.T.);
#188=EDGE_CURVE('',#153,#154,#72,.T.);
#189=EDGE_CURVE('',#154,#154,#134,.T.);
#190=EDGE_CURVE('',#155,#156,#135,.T.);
#191=EDGE_CURVE('',#156,#157,#73,.T.);
#192=EDGE_CURVE('',#157,#158,#136,.F.);
#193=EDGE_CURVE('',#158,#155,#74,.T.);
#194=EDGE_CURVE('',#158,#159,#75,.T.);
#195=EDGE_CURVE('',#160,#159,#76,.T.);
#196=EDGE_CURVE('',#160,#161,#77,.T.);
#197=EDGE_CURVE('',#161,#162,#137,.T.);
#198=EDGE_CURVE('',#162,#155,#78,.T.);
#199=EDGE_CURVE('',#163,#163,#138,.T.);
#200=EDGE_CURVE('',#164,#165,#139,.T.);
#201=EDGE_CURVE('',#165,#166,#79,.T.);
#202=EDGE_CURVE('',#166,#167,#140,.F.);
#203=EDGE_CURVE('',#167,#164,#80,.T.);
#204=EDGE_CURVE('',#156,#164,#81,.T.);
#205=EDGE_CURVE('',#157,#167,#82,.T.);
#206=EDGE_CURVE('',#168,#160,#141,.T.);
#207=EDGE_CURVE('',#159,#169,#142,.T.);
#208=EDGE_CURVE('',#169,#168,#83,.T.);
#209=EDGE_CURVE('',#169,#170,#84,.T.);
#210=EDGE_CURVE('',#171,#170,#85,.T.);
#211=EDGE_CURVE('',#168,#171,#86,.T.);
#212=EDGE_CURVE('',#172,#166,#87,.T.);
#213=EDGE_CURVE('',#170,#172,#143,.T.);
#214=EDGE_CURVE('',#173,#174,#144,.T.);
#215=EDGE_CURVE('',#174,#175,#88,.T.);
#216=EDGE_CURVE('',#175,#176,#145,.T.);
#217=EDGE_CURVE('',#176,#173,#89,.T.);
#218=EDGE_CURVE('',#172,#177,#90,.T.);
#219=EDGE_CURVE('',#177,#171,#146,.T.);
#220=EDGE_CURVE('',#165,#178,#91,.T.);
#221=EDGE_CURVE('',#178,#179,#147,.T.);
#222=EDGE_CURVE('',#179,#177,#92,.T.);
#223=EDGE_CURVE('',#180,#181,#148,.T.);
#224=EDGE_CURVE('',#181,#180,#149,.T.);
#225=EDGE_CURVE('',#182,#175,#93,.T.);
#226=EDGE_CURVE('',#183,#182,#150,.T.);
#227=EDGE_CURVE('',#183,#176,#94,.T.);
#228=EDGE_CURVE('',#184,#183,#95,.T.);
#229=EDGE_CURVE('',#184,#173,#96,.T.);
#230=EDGE_CURVE('',#185,#184,#151,.T.);
#231=EDGE_CURVE('',#185,#174,#97,.T.);
#232=EDGE_CURVE('',#182,#185,#98,.T.);
#233=EDGE_CURVE('',#181,#163,#99,.T.);
#234=EDGE_CURVE('',#162,#178,#100,.T.);
#235=EDGE_CURVE('',#161,#179,#101,.T.);
#236=ORIENTED_EDGE('',*,*,#186,.F.);
#237=ORIENTED_EDGE('',*,*,#187,.F.);
#238=ORIENTED_EDGE('',*,*,#188,.T.);
#239=ORIENTED_EDGE('',*,*,#189,.F.);
#240=ORIENTED_EDGE('',*,*,#188,.F.);
#241=ORIENTED_EDGE('',*,*,#190,.T.);
#242=ORIENTED_EDGE('',*,*,#191,.T.);
#243=ORIENTED_EDGE('',*,*,#192,.T.);
#244=ORIENTED_EDGE('',*,*,#193,.T.);
#245=ORIENTED_EDGE('',*,*,#193,.F.);
#246=ORIENTED_EDGE('',*,*,#194,.T.);
#247=ORIENTED_EDGE('',*,*,#195,.F.);
#248=ORIENTED_EDGE('',*,*,#196,.T.);
#249=ORIENTED_EDGE('',*,*,#197,.T.);
#250=ORIENTED_EDGE('',*,*,#198,.T.);
#251=ORIENTED_EDGE('',*,*,#199,.T.);
#252=ORIENTED_EDGE('',*,*,#200,.T.);
#253=ORIENTED_EDGE('',*,*,#201,.T.);
#254=ORIENTED_EDGE('',*,*,#202,.T.);
#255=ORIENTED_EDGE('',*,*,#203,.T.);
#256=ORIENTED_EDGE('',*,*,#191,.F.);
#257=ORIENTED_EDGE('',*,*,#204,.T.);
#258=ORIENTED_EDGE('',*,*,#203,.F.);
#259=ORIENTED_EDGE('',*,*,#205,.F.);
#260=ORIENTED_EDGE('',*,*,#206,.T.);
#261=ORIENTED_EDGE('',*,*,#195,.T.);
#262=ORIENTED_EDGE('',*,*,#207,.T.);
#263=ORIENTED_EDGE('',*,*,#208,.T.);
#264=ORIENTED_EDGE('',*,*,#208,.F.);
#265=ORIENTED_EDGE('',*,*,#209,.T.);
#266=ORIENTED_EDGE('',*,*,#210,.F.);
#267=ORIENTED_EDGE('',*,*,#211,.F.);
#268=ORIENTED_EDGE('',*,*,#207,.F.);
#269=ORIENTED_EDGE('',*,*,#194,.F.);
#270=ORIENTED_EDGE('',*,*,#192,.F.);
#271=ORIENTED_EDGE('',*,*,#205,.T.);
#272=ORIENTED_EDGE('',*,*,#202,.F.);
#273=ORIENTED_EDGE('',*,*,#212,.F.);
#274=ORIENTED_EDGE('',*,*,#213,.F.);
#275=ORIENTED_EDGE('',*,*,#209,.F.);
#276=ORIENTED_EDGE('',*,*,#214,.T.);
#277=ORIENTED_EDGE('',*,*,#215,.T.);
#278=ORIENTED_EDGE('',*,*,#216,.T.);
#279=ORIENTED_EDGE('',*,*,#217,.T.);
#280=ORIENTED_EDGE('',*,*,#213,.T.);
#281=ORIENTED_EDGE('',*,*,#218,.T.);
#282=ORIENTED_EDGE('',*,*,#219,.T.);
#283=ORIENTED_EDGE('',*,*,#210,.T.);
#284=ORIENTED_EDGE('',*,*,#201,.F.);
#285=ORIENTED_EDGE('',*,*,#220,.T.);
#286=ORIENTED_EDGE('',*,*,#221,.T.);
#287=ORIENTED_EDGE('',*,*,#222,.T.);
#288=ORIENTED_EDGE('',*,*,#218,.F.);
#289=ORIENTED_EDGE('',*,*,#212,.T.);
#290=ORIENTED_EDGE('',*,*,#223,.T.);
#291=ORIENTED_EDGE('',*,*,#224,.T.);
#292=ORIENTED_EDGE('',*,*,#216,.F.);
#293=ORIENTED_EDGE('',*,*,#225,.F.);
#294=ORIENTED_EDGE('',*,*,#226,.F.);
#295=ORIENTED_EDGE('',*,*,#227,.T.);
#296=ORIENTED_EDGE('',*,*,#217,.F.);
#297=ORIENTED_EDGE('',*,*,#227,.F.);
#298=ORIENTED_EDGE('',*,*,#228,.F.);
#299=ORIENTED_EDGE('',*,*,#229,.T.);
#300=ORIENTED_EDGE('',*,*,#214,.F.);
#301=ORIENTED_EDGE('',*,*,#229,.F.);
#302=ORIENTED_EDGE('',*,*,#230,.F.);
#303=ORIENTED_EDGE('',*,*,#231,.T.);
#304=ORIENTED_EDGE('',*,*,#215,.F.);
#305=ORIENTED_EDGE('',*,*,#231,.F.);
#306=ORIENTED_EDGE('',*,*,#232,.F.);
#307=ORIENTED_EDGE('',*,*,#225,.T.);
#308=ORIENTED_EDGE('',*,*,#223,.F.);
#309=ORIENTED_EDGE('',*,*,#224,.F.);
#310=ORIENTED_EDGE('',*,*,#233,.T.);
#311=ORIENTED_EDGE('',*,*,#199,.F.);
#312=ORIENTED_EDGE('',*,*,#233,.F.);
#313=ORIENTED_EDGE('',*,*,#190,.F.);
#314=ORIENTED_EDGE('',*,*,#198,.F.);
#315=ORIENTED_EDGE('',*,*,#234,.T.);
#316=ORIENTED_EDGE('',*,*,#220,.F.);
#317=ORIENTED_EDGE('',*,*,#200,.F.);
#318=ORIENTED_EDGE('',*,*,#204,.F.);
#319=ORIENTED_EDGE('',*,*,#186,.T.);
#320=ORIENTED_EDGE('',*,*,#187,.T.);
#321=ORIENTED_EDGE('',*,*,#206,.F.);
#322=ORIENTED_EDGE('',*,*,#211,.T.);
#323=ORIENTED_EDGE('',*,*,#219,.F.);
#324=ORIENTED_EDGE('',*,*,#222,.F.);
#325=ORIENTED_EDGE('',*,*,#235,.F.);
#326=ORIENTED_EDGE('',*,*,#196,.F.);
#327=ORIENTED_EDGE('',*,*,#189,.T.);
#328=ORIENTED_EDGE('',*,*,#230,.T.);
#329=ORIENTED_EDGE('',*,*,#228,.T.);
#330=ORIENTED_EDGE('',*,*,#226,.T.);
#331=ORIENTED_EDGE('',*,*,#232,.T.);
#332=ORIENTED_EDGE('',*,*,#197,.F.);
#333=ORIENTED_EDGE('',*,*,#235,.T.);
#334=ORIENTED_EDGE('',*,*,#221,.F.);
#335=ORIENTED_EDGE('',*,*,#234,.F.);
#336=CYLINDRICAL_SURFACE('',#383,3.5);
#337=CYLINDRICAL_SURFACE('',#387,4.);
#338=CYLINDRICAL_SURFACE('',#393,4.);
#339=CYLINDRICAL_SURFACE('',#397,4.);
#340=CYLINDRICAL_SURFACE('',#405,4.);
#341=CYLINDRICAL_SURFACE('',#411,3.);
#342=CYLINDRICAL_SURFACE('',#414,3.);
#343=CYLINDRICAL_SURFACE('',#417,14.);
#344=CYLINDRICAL_SURFACE('',#420,16.5);
#345=ADVANCED_FACE('',(#30),#336,.F.);
#346=ADVANCED_FACE('',(#31),#337,.T.);
#347=ADVANCED_FACE('',(#32,#15),#21,.F.);
#348=ADVANCED_FACE('',(#33),#338,.T.);
#349=ADVANCED_FACE('',(#34),#22,.T.);
#350=ADVANCED_FACE('',(#35),#339,.T.);
#351=ADVANCED_FACE('',(#36),#23,.T.);
#352=ADVANCED_FACE('',(#37,#16),#24,.T.);
#353=ADVANCED_FACE('',(#38),#340,.T.);
#354=ADVANCED_FACE('',(#39,#17),#25,.T.);
#355=ADVANCED_FACE('',(#40),#341,.F.);
#356=ADVANCED_FACE('',(#41),#26,.F.);
#357=ADVANCED_FACE('',(#42),#342,.F.);
#358=ADVANCED_FACE('',(#43),#27,.F.);
#359=ADVANCED_FACE('',(#44),#343,.F.);
#360=ADVANCED_FACE('',(#45,#18),#28,.T.);
#361=ADVANCED_FACE('',(#46,#19,#20),#29,.T.);
#362=ADVANCED_FACE('',(#47),#344,.T.);
#363=CLOSED_SHELL('',(#345,#346,#347,#348,#349,#350,#351,#352,#353,#354,
#355,#356,#357,#358,#359,#360,#361,#362));
#364=DERIVED_UNIT_ELEMENT(#366,1.);
#365=DERIVED_UNIT_ELEMENT(#637,3.);
#366=(
MASS_UNIT()
NAMED_UNIT(*)
SI_UNIT($,.GRAM.)
);
#367=DERIVED_UNIT((#364,#365));
#368=MEASURE_REPRESENTATION_ITEM('density measure',
POSITIVE_RATIO_MEASURE(7.85),#367);
#369=PROPERTY_DEFINITION_REPRESENTATION(#374,#371);
#370=PROPERTY_DEFINITION_REPRESENTATION(#375,#372);
#371=REPRESENTATION('material name',(#373),#634);
#372=REPRESENTATION('density',(#368),#634);
#373=DESCRIPTIVE_REPRESENTATION_ITEM('Ocel pozinkovan\X\E1',
'Ocel pozinkovan\X\E1');
#374=PROPERTY_DEFINITION('material property','material name',#644);
#375=PROPERTY_DEFINITION('material property','density of part',#644);
#376=DATE_TIME_ROLE('creation_date');
#377=APPLIED_DATE_AND_TIME_ASSIGNMENT(#378,#376,(#644));
#378=DATE_AND_TIME(#379,#380);
#379=CALENDAR_DATE(2019,18,1);
#380=LOCAL_TIME(15,53,40.,#381);
#381=COORDINATED_UNIVERSAL_TIME_OFFSET(0,0,.BEHIND.);
#382=AXIS2_PLACEMENT_3D('placement',#529,#421,#422);
#383=AXIS2_PLACEMENT_3D('',#530,#423,#424);
#384=AXIS2_PLACEMENT_3D('',#533,#425,#426);
#385=AXIS2_PLACEMENT_3D('',#534,#427,#428);
#386=AXIS2_PLACEMENT_3D('',#537,#430,#431);
#387=AXIS2_PLACEMENT_3D('',#538,#432,#433);
#388=AXIS2_PLACEMENT_3D('',#541,#434,#435);
#389=AXIS2_PLACEMENT_3D('',#545,#437,#438);
#390=AXIS2_PLACEMENT_3D('',#547,#440,#441);
#391=AXIS2_PLACEMENT_3D('',#555,#445,#446);
#392=AXIS2_PLACEMENT_3D('',#558,#448,#449);
#393=AXIS2_PLACEMENT_3D('',#559,#450,#451);
#394=AXIS2_PLACEMENT_3D('',#562,#452,#453);
#395=AXIS2_PLACEMENT_3D('',#566,#455,#456);
#396=AXIS2_PLACEMENT_3D('',#568,#458,#459);
#397=AXIS2_PLACEMENT_3D('',#571,#462,#463);
#398=AXIS2_PLACEMENT_3D('',#573,#464,#465);
#399=AXIS2_PLACEMENT_3D('',#575,#466,#467);
#400=AXIS2_PLACEMENT_3D('',#577,#469,#470);
#401=AXIS2_PLACEMENT_3D('',#583,#474,#475);
#402=AXIS2_PLACEMENT_3D('',#586,#477,#478);
#403=AXIS2_PLACEMENT_3D('',#589,#479,#480);
#404=AXIS2_PLACEMENT_3D('',#593,#482,#483);
#405=AXIS2_PLACEMENT_3D('',#595,#485,#486);
#406=AXIS2_PLACEMENT_3D('',#598,#488,#489);
#407=AXIS2_PLACEMENT_3D('',#599,#490,#491);
#408=AXIS2_PLACEMENT_3D('',#603,#493,#494);
#409=AXIS2_PLACEMENT_3D('',#607,#496,#497);
#410=AXIS2_PLACEMENT_3D('',#608,#498,#499);
#411=AXIS2_PLACEMENT_3D('',#609,#500,#501);
#412=AXIS2_PLACEMENT_3D('',#613,#503,#504);
#413=AXIS2_PLACEMENT_3D('',#615,#506,#507);
#414=AXIS2_PLACEMENT_3D('',#619,#510,#511);
#415=AXIS2_PLACEMENT_3D('',#621,#512,#513);
#416=AXIS2_PLACEMENT_3D('',#623,#515,#516);
#417=AXIS2_PLACEMENT_3D('',#625,#518,#519);
#418=AXIS2_PLACEMENT_3D('',#627,#521,#522);
#419=AXIS2_PLACEMENT_3D('',#629,#524,#525);
#420=AXIS2_PLACEMENT_3D('',#631,#527,#528);
#421=DIRECTION('axis',(0.,0.,1.));
#422=DIRECTION('refdir',(1.,0.,0.));
#423=DIRECTION('center_axis',(-1.,0.,4.49051252780205E-16));
#424=DIRECTION('ref_axis',(0.,-1.,0.));
#425=DIRECTION('center_axis',(1.,0.,-4.49051252780205E-16));
#426=DIRECTION('ref_axis',(0.,-1.,0.));
#427=DIRECTION('center_axis',(1.,0.,-4.49051252780205E-16));
#428=DIRECTION('ref_axis',(0.,-1.,0.));
#429=DIRECTION('',(1.,0.,-4.49051252780205E-16));
#430=DIRECTION('center_axis',(-1.,0.,2.22044604925031E-16));
#431=DIRECTION('ref_axis',(0.,-1.,0.));
#432=DIRECTION('center_axis',(1.,0.,0.));
#433=DIRECTION('ref_axis',(0.,-0.707106781186548,-0.707106781186547));
#434=DIRECTION('center_axis',(1.,0.,-4.49051252780205E-16));
#435=DIRECTION('ref_axis',(0.,-0.707106781186548,-0.707106781186547));
#436=DIRECTION('',(1.,0.,0.));
#437=DIRECTION('center_axis',(1.,0.,-3.33066907387547E-16));
#438=DIRECTION('ref_axis',(0.,-0.707106781186548,-0.707106781186547));
#439=DIRECTION('',(-1.,0.,0.));
#440=DIRECTION('center_axis',(0.,1.,0.));
#441=DIRECTION('ref_axis',(0.,0.,1.));
#442=DIRECTION('',(-3.33066907387547E-16,0.,-1.));
#443=DIRECTION('',(-1.,0.,0.));
#444=DIRECTION('',(2.22044604925031E-16,0.,1.));
#445=DIRECTION('center_axis',(0.,-1.,0.));
#446=DIRECTION('ref_axis',(-0.393939393939394,0.,0.919136417460794));
#447=DIRECTION('',(-4.49051252780205E-16,0.,-1.));
#448=DIRECTION('center_axis',(0.,1.,0.));
#449=DIRECTION('ref_axis',(-1.,0.,0.));
#450=DIRECTION('center_axis',(-1.,0.,0.));
#451=DIRECTION('ref_axis',(0.,0.707106781186548,-0.707106781186548));
#452=DIRECTION('center_axis',(1.,0.,-4.49051252780205E-16));
#453=DIRECTION('ref_axis',(0.,0.707106781186548,-0.707106781186548));
#454=DIRECTION('',(1.,0.,0.));
#455=DIRECTION('center_axis',(1.,0.,-3.33066907387547E-16));
#456=DIRECTION('ref_axis',(0.,0.707106781186548,-0.707106781186548));
#457=DIRECTION('',(-1.,0.,0.));
#458=DIRECTION('center_axis',(0.,0.,-1.));
#459=DIRECTION('ref_axis',(-1.,0.,0.));
#460=DIRECTION('',(0.,1.,0.));
#461=DIRECTION('',(0.,1.,0.));
#462=DIRECTION('center_axis',(1.,0.,0.));
#463=DIRECTION('ref_axis',(0.,-0.707106781186547,-0.707106781186548));
#464=DIRECTION('center_axis',(-1.,0.,2.22044604925031E-16));
#465=DIRECTION('ref_axis',(0.,-0.707106781186547,-0.707106781186548));
#466=DIRECTION('center_axis',(1.,0.,-3.33066907387547E-16));
#467=DIRECTION('ref_axis',(0.,-0.707106781186547,-0.707106781186548));
#468=DIRECTION('',(1.,0.,0.));
#469=DIRECTION('center_axis',(0.,0.,-1.));
#470=DIRECTION('ref_axis',(-1.,0.,0.));
#471=DIRECTION('',(0.,1.,0.));
#472=DIRECTION('',(-1.,0.,0.));
#473=DIRECTION('',(0.,1.,0.));
#474=DIRECTION('center_axis',(-1.,0.,3.33066907387547E-16));
#475=DIRECTION('ref_axis',(3.33066907387547E-16,0.,1.));
#476=DIRECTION('',(3.33066907387547E-16,0.,1.));
#477=DIRECTION('center_axis',(1.,0.,-3.33066907387547E-16));
#478=DIRECTION('ref_axis',(0.,0.707106781186547,-0.707106781186548));
#479=DIRECTION('center_axis',(1.,0.,-3.33066907387547E-16));
#480=DIRECTION('ref_axis',(0.,1.,0.));
#481=DIRECTION('',(-3.33066907387547E-16,0.,-1.));
#482=DIRECTION('center_axis',(1.,0.,-3.33066907387547E-16));
#483=DIRECTION('ref_axis',(0.,-1.,0.));
#484=DIRECTION('',(3.33066907387547E-16,0.,1.));
#485=DIRECTION('center_axis',(-1.,0.,0.));
#486=DIRECTION('ref_axis',(0.,0.707106781186547,-0.707106781186548));
#487=DIRECTION('',(1.,0.,0.));
#488=DIRECTION('center_axis',(-1.,0.,2.22044604925031E-16));
#489=DIRECTION('ref_axis',(0.,0.707106781186547,-0.707106781186548));
#490=DIRECTION('center_axis',(0.,1.,0.));
#491=DIRECTION('ref_axis',(0.,0.,1.));
#492=DIRECTION('',(4.49051252780205E-16,0.,1.));
#493=DIRECTION('center_axis',(0.,1.,0.));
#494=DIRECTION('ref_axis',(-0.393939393939394,0.,0.919136417460794));
#495=DIRECTION('',(-2.22044604925031E-16,0.,-1.));
#496=DIRECTION('center_axis',(0.,-1.,0.));
#497=DIRECTION('ref_axis',(-1.,0.,0.));
#498=DIRECTION('center_axis',(0.,-1.,0.));
#499=DIRECTION('ref_axis',(-1.,0.,0.));
#500=DIRECTION('center_axis',(-1.,0.,1.79429983777803E-16));
#501=DIRECTION('ref_axis',(0.,-1.,0.));
#502=DIRECTION('',(-1.,0.,1.79429983777803E-16));
#503=DIRECTION('center_axis',(-1.,0.,2.22044604925031E-16));
#504=DIRECTION('ref_axis',(0.,-1.,0.));
#505=DIRECTION('',(-1.,0.,1.79429983777803E-16));
#506=DIRECTION('center_axis',(0.,1.,0.));
#507=DIRECTION('ref_axis',(-2.22044604925031E-16,0.,-1.));
#508=DIRECTION('',(-2.22044604925031E-16,0.,-1.));
#509=DIRECTION('',(-1.,0.,1.79429983777803E-16));
#510=DIRECTION('center_axis',(-1.,0.,1.79429983777803E-16));
#511=DIRECTION('ref_axis',(0.,1.,0.));
#512=DIRECTION('center_axis',(-1.,0.,2.22044604925031E-16));
#513=DIRECTION('ref_axis',(0.,1.,0.));
#514=DIRECTION('',(-1.,0.,1.79429983777803E-16));
#515=DIRECTION('center_axis',(0.,-1.,0.));
#516=DIRECTION('ref_axis',(2.22044604925031E-16,0.,1.));
#517=DIRECTION('',(2.22044604925031E-16,0.,1.));
#518=DIRECTION('center_axis',(0.,1.,0.));
#519=DIRECTION('ref_axis',(-1.,0.,0.));
#520=DIRECTION('',(0.,-1.,0.));
#521=DIRECTION('center_axis',(-1.,0.,4.49051252780205E-16));
#522=DIRECTION('ref_axis',(4.49051252780205E-16,0.,1.));
#523=DIRECTION('',(0.,1.,0.));
#524=DIRECTION('center_axis',(1.,0.,-2.22044604925031E-16));
#525=DIRECTION('ref_axis',(-2.22044604925031E-16,0.,-1.));
#526=DIRECTION('',(0.,1.,0.));
#527=DIRECTION('center_axis',(0.,1.,0.));
#528=DIRECTION('ref_axis',(-0.393939393939394,0.,0.919136417460794));
#529=CARTESIAN_POINT('',(0.,0.,0.));
#530=CARTESIAN_POINT('Origin',(87.3408931172832,16.,-24.));
#531=CARTESIAN_POINT('',(6.5,12.5,-24.));
#532=CARTESIAN_POINT('',(6.49999999999999,19.5,-24.));
#533=CARTESIAN_POINT('Origin',(6.49999999999999,16.,-24.));
#534=CARTESIAN_POINT('Origin',(6.49999999999999,16.,-24.));
#535=CARTESIAN_POINT('',(16.5,19.5,-24.));
#536=CARTESIAN_POINT('',(87.3408931172832,19.5,-24.));
#537=CARTESIAN_POINT('Origin',(16.5,16.,-24.));
#538=CARTESIAN_POINT('Origin',(10.849962542601,4.,-26.));
#539=CARTESIAN_POINT('',(6.5,0.,-26.));
#540=CARTESIAN_POINT('',(6.49999999999999,4.,-30.));
#541=CARTESIAN_POINT('Origin',(6.49999999999999,4.,-26.));
#542=CARTESIAN_POINT('',(14.5,4.,-30.));
#543=CARTESIAN_POINT('',(10.849962542601,4.,-30.));
#544=CARTESIAN_POINT('',(14.5,0.,-26.));
#545=CARTESIAN_POINT('Origin',(14.5,4.,-26.));
#546=CARTESIAN_POINT('',(10.849962542601,0.,-26.));
#547=CARTESIAN_POINT('Origin',(7.19992508520206,0.,-16.4468618928919));
#548=CARTESIAN_POINT('',(14.5,0.,-46.));
#549=CARTESIAN_POINT('',(14.5,0.,-30.));
#550=CARTESIAN_POINT('',(16.5,0.,-46.));
#551=CARTESIAN_POINT('',(11.849962542601,0.,-46.));
#552=CARTESIAN_POINT('',(16.5,0.,-4.44089209850063E-15));
#553=CARTESIAN_POINT('',(16.5,0.,-50.));
#554=CARTESIAN_POINT('',(6.5,0.,-15.1657508881031));
#555=CARTESIAN_POINT('Origin',(0.,0.,0.));
#556=CARTESIAN_POINT('',(6.5,0.,-15.1657508881031));
#557=CARTESIAN_POINT('',(14.,0.,-6.15539761730692E-15));
#558=CARTESIAN_POINT('Origin',(0.,0.,-4.44089209850063E-15));
#559=CARTESIAN_POINT('Origin',(10.849962542601,28.,-26.));
#560=CARTESIAN_POINT('',(6.49999999999999,28.,-30.));
#561=CARTESIAN_POINT('',(6.5,32.,-26.));
#562=CARTESIAN_POINT('Origin',(6.49999999999999,28.,-26.));
#563=CARTESIAN_POINT('',(14.5,32.,-26.));
#564=CARTESIAN_POINT('',(10.849962542601,32.,-26.));
#565=CARTESIAN_POINT('',(14.5,28.,-30.));
#566=CARTESIAN_POINT('Origin',(14.5,28.,-26.));
#567=CARTESIAN_POINT('',(10.849962542601,28.,-30.));
#568=CARTESIAN_POINT('Origin',(14.5,0.,-30.));
#569=CARTESIAN_POINT('',(6.49999999999999,0.,-30.));
#570=CARTESIAN_POINT('',(14.5,0.,-30.));
#571=CARTESIAN_POINT('Origin',(11.849962542601,4.,-46.));
#572=CARTESIAN_POINT('',(16.5,4.,-50.));
#573=CARTESIAN_POINT('Origin',(16.5,4.,-46.));
#574=CARTESIAN_POINT('',(14.5,4.,-50.));
#575=CARTESIAN_POINT('Origin',(14.5,4.,-46.));
#576=CARTESIAN_POINT('',(11.849962542601,4.,-50.));
#577=CARTESIAN_POINT('Origin',(16.5,0.,-50.));
#578=CARTESIAN_POINT('',(14.5,28.,-50.));
#579=CARTESIAN_POINT('',(14.5,0.,-50.));
#580=CARTESIAN_POINT('',(16.5,28.,-50.));
#581=CARTESIAN_POINT('',(11.849962542601,28.,-50.));
#582=CARTESIAN_POINT('',(16.5,0.,-50.));
#583=CARTESIAN_POINT('Origin',(14.5,0.,-50.));
#584=CARTESIAN_POINT('',(14.5,32.,-46.));
#585=CARTESIAN_POINT('',(14.5,32.,-30.));
#586=CARTESIAN_POINT('Origin',(14.5,28.,-46.));
#587=CARTESIAN_POINT('',(14.5,19.,-36.));
#588=CARTESIAN_POINT('',(14.5,13.,-36.));
#589=CARTESIAN_POINT('Origin',(14.5,16.,-36.));
#590=CARTESIAN_POINT('',(14.5,13.,-40.));
#591=CARTESIAN_POINT('',(14.5,13.,-45.));
#592=CARTESIAN_POINT('',(14.5,19.,-40.));
#593=CARTESIAN_POINT('Origin',(14.5,16.,-40.));
#594=CARTESIAN_POINT('',(14.5,19.,-43.));
#595=CARTESIAN_POINT('Origin',(11.849962542601,28.,-46.));
#596=CARTESIAN_POINT('',(16.5,32.,-46.));
#597=CARTESIAN_POINT('',(11.849962542601,32.,-46.));
#598=CARTESIAN_POINT('Origin',(16.5,28.,-46.));
#599=CARTESIAN_POINT('Origin',(7.19992508520206,32.,-16.4468618928919));
#600=CARTESIAN_POINT('',(6.5,32.,-15.1657508881031));
#601=CARTESIAN_POINT('',(6.5,32.,-15.1657508881031));
#602=CARTESIAN_POINT('',(16.5,32.,-4.44089209850063E-15));
#603=CARTESIAN_POINT('Origin',(0.,32.,0.));
#604=CARTESIAN_POINT('',(16.5,32.,-50.));
#605=CARTESIAN_POINT('',(-14.,32.,-4.44089209850063E-15));
#606=CARTESIAN_POINT('',(14.,32.,-6.15539761730692E-15));
#607=CARTESIAN_POINT('Origin',(0.,32.,-4.44089209850063E-15));
#608=CARTESIAN_POINT('Origin',(0.,32.,-4.44089209850063E-15));
#609=CARTESIAN_POINT('Origin',(16.5,16.,-40.));
#610=CARTESIAN_POINT('',(16.5,13.,-40.));
#611=CARTESIAN_POINT('',(16.5,13.,-40.));
#612=CARTESIAN_POINT('',(16.5,19.,-40.));
#613=CARTESIAN_POINT('Origin',(16.5,16.,-40.));
#614=CARTESIAN_POINT('',(16.5,19.,-40.));
#615=CARTESIAN_POINT('Origin',(16.5,19.,-36.));
#616=CARTESIAN_POINT('',(16.5,19.,-36.));
#617=CARTESIAN_POINT('',(16.5,19.,-18.));
#618=CARTESIAN_POINT('',(16.5,19.,-36.));
#619=CARTESIAN_POINT('Origin',(16.5,16.,-36.));
#620=CARTESIAN_POINT('',(16.5,13.,-36.));
#621=CARTESIAN_POINT('Origin',(16.5,16.,-36.));
#622=CARTESIAN_POINT('',(16.5,13.,-36.));
#623=CARTESIAN_POINT('Origin',(16.5,13.,-40.));
#624=CARTESIAN_POINT('',(16.5,13.,-20.));
#625=CARTESIAN_POINT('Origin',(0.,-48.8408931172832,-4.44089209850063E-15));
#626=CARTESIAN_POINT('',(14.,-48.8408931172832,-6.15539761730692E-15));
#627=CARTESIAN_POINT('Origin',(6.49999999999999,0.,-30.));
#628=CARTESIAN_POINT('',(6.5,0.,-15.1657508881031));
#629=CARTESIAN_POINT('Origin',(16.5,0.,0.));
#630=CARTESIAN_POINT('',(16.5,0.,-4.44089209850063E-15));
#631=CARTESIAN_POINT('Origin',(0.,0.,0.));
#632=UNCERTAINTY_MEASURE_WITH_UNIT(LENGTH_MEASURE(0.01),#636,
'DISTANCE_ACCURACY_VALUE',
'Maximum model space distance between geometric entities at asserted c
onnectivities');
#633=UNCERTAINTY_MEASURE_WITH_UNIT(LENGTH_MEASURE(0.01),#636,
'DISTANCE_ACCURACY_VALUE',
'Maximum model space distance between geometric entities at asserted c
onnectivities');
#634=(
GEOMETRIC_REPRESENTATION_CONTEXT(3)
GLOBAL_UNCERTAINTY_ASSIGNED_CONTEXT((#632))
GLOBAL_UNIT_ASSIGNED_CONTEXT((#636,#639,#638))
REPRESENTATION_CONTEXT('','3D')
);
#635=(
GEOMETRIC_REPRESENTATION_CONTEXT(3)
GLOBAL_UNCERTAINTY_ASSIGNED_CONTEXT((#633))
GLOBAL_UNIT_ASSIGNED_CONTEXT((#636,#639,#638))
REPRESENTATION_CONTEXT('','3D')
);
#636=(
LENGTH_UNIT()
NAMED_UNIT(*)
SI_UNIT(.MILLI.,.METRE.)
);
#637=(
LENGTH_UNIT()
NAMED_UNIT(*)
SI_UNIT(.CENTI.,.METRE.)
);
#638=(
NAMED_UNIT(*)
SI_UNIT($,.STERADIAN.)
SOLID_ANGLE_UNIT()
);
#639=(
NAMED_UNIT(*)
PLANE_ANGLE_UNIT()
SI_UNIT($,.RADIAN.)
);
#640=SHAPE_DEFINITION_REPRESENTATION(#641,#642);
#641=PRODUCT_DEFINITION_SHAPE('',$,#644);
#642=SHAPE_REPRESENTATION('',(#382),#634);
#643=PRODUCT_DEFINITION_CONTEXT('part definition',#648,'design');
#644=PRODUCT_DEFINITION('4721-154-350014','350014',#645,#643);
#645=PRODUCT_DEFINITION_FORMATION('',$,#650);
#646=PRODUCT_RELATED_PRODUCT_CATEGORY('350014','350014',(#650));
#647=APPLICATION_PROTOCOL_DEFINITION('international standard',
'automotive_design',2009,#648);
#648=APPLICATION_CONTEXT(
'Core Data for Automotive Mechanical Design Process');
#649=PRODUCT_CONTEXT('part definition',#648,'mechanical');
#650=PRODUCT('4721-154-350014','350014','Spona ',(#649));
#651=PRESENTATION_STYLE_ASSIGNMENT((#652));
#652=SURFACE_STYLE_USAGE(.BOTH.,#653);
#653=SURFACE_SIDE_STYLE('',(#654));
#654=SURFACE_STYLE_FILL_AREA(#655);
#655=FILL_AREA_STYLE('',(#656));
#656=FILL_AREA_STYLE_COLOUR('',#657);
#657=COLOUR_RGB('',0.811764705882353,0.8,0.823529411764706);
ENDSEC;
END-ISO-10303-21;
