ISO-10303-21;
HEADER;
/* Generated by software containing ST-Developer
 * from STEP Tools, Inc. (www.steptools.com) 
 */

FILE_DESCRIPTION(
/* description */ (''),
/* implementation_level */ '2;1');

FILE_NAME(
/* name */ 
'D:\\VaultPracovni\\Zak\X\E1zky\\P\X2\015900ED\X0\slu\X2\0161\X0\enstv
\X\ED k profil\X2\016F\X0\m\\Speci\X\E1ln\X\ED profily\\182785\\182785.
stp',
/* time_stamp */ '2020-01-06T17:10:50+01:00',
/* author */ ('Hn\X\E1tek'),
/* organization */ ('Alutec K&K'),
/* preprocessor_version */ 'ST-DEVELOPER v17',
/* originating_system */ 'Autodesk Inventor 2018',
/* authorisation */ '');

FILE_SCHEMA (('AUTOMOTIVE_DESIGN { 1 0 10303 214 3 1 1 }'));
ENDSEC;

DATA;
#10=MECHANICAL_DESIGN_GEOMETRIC_PRESENTATION_REPRESENTATION('',(#13),#411);
#11=SHAPE_REPRESENTATION_RELATIONSHIP('SRR','None',#418,#12);
#12=ADVANCED_BREP_SHAPE_REPRESENTATION('',(#14),#410);
#13=STYLED_ITEM('',(#428),#14);
#14=MANIFOLD_SOLID_BREP('T\X2\011B\X0\leso2',#225);
#15=FACE_BOUND('',#46,.T.);
#16=FACE_BOUND('',#47,.T.);
#17=FACE_BOUND('',#49,.T.);
#18=FACE_BOUND('',#50,.T.);
#19=PLANE('',#254);
#20=PLANE('',#258);
#21=PLANE('',#271);
#22=PLANE('',#272);
#23=FACE_OUTER_BOUND('',#35,.T.);
#24=FACE_OUTER_BOUND('',#36,.T.);
#25=FACE_OUTER_BOUND('',#37,.T.);
#26=FACE_OUTER_BOUND('',#38,.T.);
#27=FACE_OUTER_BOUND('',#39,.T.);
#28=FACE_OUTER_BOUND('',#40,.T.);
#29=FACE_OUTER_BOUND('',#41,.T.);
#30=FACE_OUTER_BOUND('',#42,.T.);
#31=FACE_OUTER_BOUND('',#43,.T.);
#32=FACE_OUTER_BOUND('',#44,.T.);
#33=FACE_OUTER_BOUND('',#45,.T.);
#34=FACE_OUTER_BOUND('',#48,.T.);
#35=EDGE_LOOP('',(#145,#146,#147,#148));
#36=EDGE_LOOP('',(#149,#150,#151,#152));
#37=EDGE_LOOP('',(#153,#154,#155,#156));
#38=EDGE_LOOP('',(#157,#158,#159,#160));
#39=EDGE_LOOP('',(#161,#162,#163,#164));
#40=EDGE_LOOP('',(#165,#166,#167,#168));
#41=EDGE_LOOP('',(#169,#170,#171,#172));
#42=EDGE_LOOP('',(#173,#174,#175,#176));
#43=EDGE_LOOP('',(#177,#178,#179,#180));
#44=EDGE_LOOP('',(#181,#182,#183,#184));
#45=EDGE_LOOP('',(#185,#186,#187,#188,#189,#190,#191,#192));
#46=EDGE_LOOP('',(#193));
#47=EDGE_LOOP('',(#194));
#48=EDGE_LOOP('',(#195,#196,#197,#198,#199,#200,#201,#202));
#49=EDGE_LOOP('',(#203));
#50=EDGE_LOOP('',(#204));
#51=LINE('',#351,#65);
#52=LINE('',#354,#66);
#53=LINE('',#359,#67);
#54=LINE('',#365,#68);
#55=LINE('',#369,#69);
#56=LINE('',#371,#70);
#57=LINE('',#372,#71);
#58=LINE('',#378,#72);
#59=LINE('',#381,#73);
#60=LINE('',#383,#74);
#61=LINE('',#384,#75);
#62=LINE('',#389,#76);
#63=LINE('',#398,#77);
#64=LINE('',#404,#78);
#65=VECTOR('',#279,1100.);
#66=VECTOR('',#282,1100.);
#67=VECTOR('',#287,1100.);
#68=VECTOR('',#294,1100.);
#69=VECTOR('',#299,29.6274780817778);
#70=VECTOR('',#300,1100.);
#71=VECTOR('',#301,29.6274780817778);
#72=VECTOR('',#306,1100.);
#73=VECTOR('',#309,1100.);
#74=VECTOR('',#312,29.6274780817778);
#75=VECTOR('',#313,29.6274780817778);
#76=VECTOR('',#318,1100.);
#77=VECTOR('',#331,9.5);
#78=VECTOR('',#338,9.5);
#79=CIRCLE('',#246,1.);
#80=CIRCLE('',#247,1.);
#81=CIRCLE('',#249,13.5);
#82=CIRCLE('',#250,13.5);
#83=CIRCLE('',#252,1.);
#84=CIRCLE('',#253,1.);
#85=CIRCLE('',#256,1.);
#86=CIRCLE('',#257,1.);
#87=CIRCLE('',#260,1.);
#88=CIRCLE('',#261,1.);
#89=CIRCLE('',#263,13.5);
#90=CIRCLE('',#264,13.5);
#91=CIRCLE('',#266,9.5);
#92=CIRCLE('',#267,9.5);
#93=CIRCLE('',#269,9.5);
#94=CIRCLE('',#270,9.5);
#95=VERTEX_POINT('',#347);
#96=VERTEX_POINT('',#348);
#97=VERTEX_POINT('',#350);
#98=VERTEX_POINT('',#352);
#99=VERTEX_POINT('',#356);
#100=VERTEX_POINT('',#358);
#101=VERTEX_POINT('',#362);
#102=VERTEX_POINT('',#364);
#103=VERTEX_POINT('',#368);
#104=VERTEX_POINT('',#370);
#105=VERTEX_POINT('',#374);
#106=VERTEX_POINT('',#375);
#107=VERTEX_POINT('',#377);
#108=VERTEX_POINT('',#379);
#109=VERTEX_POINT('',#386);
#110=VERTEX_POINT('',#388);
#111=VERTEX_POINT('',#395);
#112=VERTEX_POINT('',#397);
#113=VERTEX_POINT('',#401);
#114=VERTEX_POINT('',#403);
#115=EDGE_CURVE('',#95,#96,#79,.T.);
#116=EDGE_CURVE('',#96,#97,#51,.T.);
#117=EDGE_CURVE('',#97,#98,#80,.T.);
#118=EDGE_CURVE('',#98,#95,#52,.T.);
#119=EDGE_CURVE('',#96,#99,#81,.T.);
#120=EDGE_CURVE('',#100,#99,#53,.T.);
#121=EDGE_CURVE('',#97,#100,#82,.T.);
#122=EDGE_CURVE('',#99,#101,#83,.T.);
#123=EDGE_CURVE('',#101,#102,#54,.T.);
#124=EDGE_CURVE('',#102,#100,#84,.T.);
#125=EDGE_CURVE('',#101,#103,#55,.T.);
#126=EDGE_CURVE('',#104,#103,#56,.T.);
#127=EDGE_CURVE('',#102,#104,#57,.T.);
#128=EDGE_CURVE('',#105,#106,#85,.T.);
#129=EDGE_CURVE('',#106,#107,#58,.T.);
#130=EDGE_CURVE('',#107,#108,#86,.T.);
#131=EDGE_CURVE('',#108,#105,#59,.T.);
#132=EDGE_CURVE('',#107,#98,#60,.T.);
#133=EDGE_CURVE('',#106,#95,#61,.T.);
#134=EDGE_CURVE('',#103,#109,#87,.T.);
#135=EDGE_CURVE('',#109,#110,#62,.T.);
#136=EDGE_CURVE('',#110,#104,#88,.T.);
#137=EDGE_CURVE('',#110,#108,#89,.T.);
#138=EDGE_CURVE('',#109,#105,#90,.T.);
#139=EDGE_CURVE('',#111,#111,#91,.T.);
#140=EDGE_CURVE('',#111,#112,#63,.T.);
#141=EDGE_CURVE('',#112,#112,#92,.T.);
#142=EDGE_CURVE('',#113,#113,#93,.T.);
#143=EDGE_CURVE('',#113,#114,#64,.T.);
#144=EDGE_CURVE('',#114,#114,#94,.T.);
#145=ORIENTED_EDGE('',*,*,#115,.T.);
#146=ORIENTED_EDGE('',*,*,#116,.T.);
#147=ORIENTED_EDGE('',*,*,#117,.T.);
#148=ORIENTED_EDGE('',*,*,#118,.T.);
#149=ORIENTED_EDGE('',*,*,#116,.F.);
#150=ORIENTED_EDGE('',*,*,#119,.T.);
#151=ORIENTED_EDGE('',*,*,#120,.F.);
#152=ORIENTED_EDGE('',*,*,#121,.F.);
#153=ORIENTED_EDGE('',*,*,#122,.T.);
#154=ORIENTED_EDGE('',*,*,#123,.T.);
#155=ORIENTED_EDGE('',*,*,#124,.T.);
#156=ORIENTED_EDGE('',*,*,#120,.T.);
#157=ORIENTED_EDGE('',*,*,#123,.F.);
#158=ORIENTED_EDGE('',*,*,#125,.T.);
#159=ORIENTED_EDGE('',*,*,#126,.F.);
#160=ORIENTED_EDGE('',*,*,#127,.F.);
#161=ORIENTED_EDGE('',*,*,#128,.T.);
#162=ORIENTED_EDGE('',*,*,#129,.T.);
#163=ORIENTED_EDGE('',*,*,#130,.T.);
#164=ORIENTED_EDGE('',*,*,#131,.T.);
#165=ORIENTED_EDGE('',*,*,#118,.F.);
#166=ORIENTED_EDGE('',*,*,#132,.F.);
#167=ORIENTED_EDGE('',*,*,#129,.F.);
#168=ORIENTED_EDGE('',*,*,#133,.T.);
#169=ORIENTED_EDGE('',*,*,#134,.T.);
#170=ORIENTED_EDGE('',*,*,#135,.T.);
#171=ORIENTED_EDGE('',*,*,#136,.T.);
#172=ORIENTED_EDGE('',*,*,#126,.T.);
#173=ORIENTED_EDGE('',*,*,#131,.F.);
#174=ORIENTED_EDGE('',*,*,#137,.F.);
#175=ORIENTED_EDGE('',*,*,#135,.F.);
#176=ORIENTED_EDGE('',*,*,#138,.T.);
#177=ORIENTED_EDGE('',*,*,#139,.F.);
#178=ORIENTED_EDGE('',*,*,#140,.T.);
#179=ORIENTED_EDGE('',*,*,#141,.F.);
#180=ORIENTED_EDGE('',*,*,#140,.F.);
#181=ORIENTED_EDGE('',*,*,#142,.F.);
#182=ORIENTED_EDGE('',*,*,#143,.T.);
#183=ORIENTED_EDGE('',*,*,#144,.F.);
#184=ORIENTED_EDGE('',*,*,#143,.F.);
#185=ORIENTED_EDGE('',*,*,#137,.T.);
#186=ORIENTED_EDGE('',*,*,#130,.F.);
#187=ORIENTED_EDGE('',*,*,#132,.T.);
#188=ORIENTED_EDGE('',*,*,#117,.F.);
#189=ORIENTED_EDGE('',*,*,#121,.T.);
#190=ORIENTED_EDGE('',*,*,#124,.F.);
#191=ORIENTED_EDGE('',*,*,#127,.T.);
#192=ORIENTED_EDGE('',*,*,#136,.F.);
#193=ORIENTED_EDGE('',*,*,#141,.T.);
#194=ORIENTED_EDGE('',*,*,#144,.T.);
#195=ORIENTED_EDGE('',*,*,#134,.F.);
#196=ORIENTED_EDGE('',*,*,#125,.F.);
#197=ORIENTED_EDGE('',*,*,#122,.F.);
#198=ORIENTED_EDGE('',*,*,#119,.F.);
#199=ORIENTED_EDGE('',*,*,#115,.F.);
#200=ORIENTED_EDGE('',*,*,#133,.F.);
#201=ORIENTED_EDGE('',*,*,#128,.F.);
#202=ORIENTED_EDGE('',*,*,#138,.F.);
#203=ORIENTED_EDGE('',*,*,#139,.T.);
#204=ORIENTED_EDGE('',*,*,#142,.T.);
#205=CYLINDRICAL_SURFACE('',#245,1.);
#206=CYLINDRICAL_SURFACE('',#248,13.5);
#207=CYLINDRICAL_SURFACE('',#251,1.);
#208=CYLINDRICAL_SURFACE('',#255,1.);
#209=CYLINDRICAL_SURFACE('',#259,1.);
#210=CYLINDRICAL_SURFACE('',#262,13.5);
#211=CYLINDRICAL_SURFACE('',#265,9.5);
#212=CYLINDRICAL_SURFACE('',#268,9.5);
#213=ADVANCED_FACE('',(#23),#205,.F.);
#214=ADVANCED_FACE('',(#24),#206,.T.);
#215=ADVANCED_FACE('',(#25),#207,.F.);
#216=ADVANCED_FACE('',(#26),#19,.T.);
#217=ADVANCED_FACE('',(#27),#208,.F.);
#218=ADVANCED_FACE('',(#28),#20,.T.);
#219=ADVANCED_FACE('',(#29),#209,.F.);
#220=ADVANCED_FACE('',(#30),#210,.T.);
#221=ADVANCED_FACE('',(#31),#211,.F.);
#222=ADVANCED_FACE('',(#32),#212,.F.);
#223=ADVANCED_FACE('',(#33,#15,#16),#21,.T.);
#224=ADVANCED_FACE('',(#34,#17,#18),#22,.F.);
#225=CLOSED_SHELL('',(#213,#214,#215,#216,#217,#218,#219,#220,#221,#222,
#223,#224));
#226=DERIVED_UNIT_ELEMENT(#228,1.);
#227=DERIVED_UNIT_ELEMENT(#413,3.);
#228=(
MASS_UNIT()
NAMED_UNIT(*)
SI_UNIT($,.GRAM.)
);
#229=DERIVED_UNIT((#226,#227));
#230=MEASURE_REPRESENTATION_ITEM('density measure',
POSITIVE_RATIO_MEASURE(2.71),#229);
#231=PROPERTY_DEFINITION_REPRESENTATION(#236,#233);
#232=PROPERTY_DEFINITION_REPRESENTATION(#237,#234);
#233=REPRESENTATION('material name',(#235),#410);
#234=REPRESENTATION('density',(#230),#410);
#235=DESCRIPTIVE_REPRESENTATION_ITEM('Hlin\X\EDk - 6061',
'Hlin\X\EDk - 6061');
#236=PROPERTY_DEFINITION('material property','material name',#420);
#237=PROPERTY_DEFINITION('material property','density of part',#420);
#238=DATE_TIME_ROLE('creation_date');
#239=APPLIED_DATE_AND_TIME_ASSIGNMENT(#240,#238,(#420));
#240=DATE_AND_TIME(#241,#242);
#241=CALENDAR_DATE(2018,29,8);
#242=LOCAL_TIME(9,12,8.,#243);
#243=COORDINATED_UNIVERSAL_TIME_OFFSET(0,0,.BEHIND.);
#244=AXIS2_PLACEMENT_3D('placement',#345,#273,#274);
#245=AXIS2_PLACEMENT_3D('',#346,#275,#276);
#246=AXIS2_PLACEMENT_3D('',#349,#277,#278);
#247=AXIS2_PLACEMENT_3D('',#353,#280,#281);
#248=AXIS2_PLACEMENT_3D('',#355,#283,#284);
#249=AXIS2_PLACEMENT_3D('',#357,#285,#286);
#250=AXIS2_PLACEMENT_3D('',#360,#288,#289);
#251=AXIS2_PLACEMENT_3D('',#361,#290,#291);
#252=AXIS2_PLACEMENT_3D('',#363,#292,#293);
#253=AXIS2_PLACEMENT_3D('',#366,#295,#296);
#254=AXIS2_PLACEMENT_3D('',#367,#297,#298);
#255=AXIS2_PLACEMENT_3D('',#373,#302,#303);
#256=AXIS2_PLACEMENT_3D('',#376,#304,#305);
#257=AXIS2_PLACEMENT_3D('',#380,#307,#308);
#258=AXIS2_PLACEMENT_3D('',#382,#310,#311);
#259=AXIS2_PLACEMENT_3D('',#385,#314,#315);
#260=AXIS2_PLACEMENT_3D('',#387,#316,#317);
#261=AXIS2_PLACEMENT_3D('',#390,#319,#320);
#262=AXIS2_PLACEMENT_3D('',#391,#321,#322);
#263=AXIS2_PLACEMENT_3D('',#392,#323,#324);
#264=AXIS2_PLACEMENT_3D('',#393,#325,#326);
#265=AXIS2_PLACEMENT_3D('',#394,#327,#328);
#266=AXIS2_PLACEMENT_3D('',#396,#329,#330);
#267=AXIS2_PLACEMENT_3D('',#399,#332,#333);
#268=AXIS2_PLACEMENT_3D('',#400,#334,#335);
#269=AXIS2_PLACEMENT_3D('',#402,#336,#337);
#270=AXIS2_PLACEMENT_3D('',#405,#339,#340);
#271=AXIS2_PLACEMENT_3D('',#406,#341,#342);
#272=AXIS2_PLACEMENT_3D('',#407,#343,#344);
#273=DIRECTION('axis',(0.,0.,1.));
#274=DIRECTION('refdir',(1.,0.,0.));
#275=DIRECTION('center_axis',(0.,0.,1.));
#276=DIRECTION('ref_axis',(-0.776819332832333,0.629723529922401,0.));
#277=DIRECTION('center_axis',(0.,0.,-1.));
#278=DIRECTION('ref_axis',(-0.776819332832333,0.629723529922401,0.));
#279=DIRECTION('',(0.,0.,1.));
#280=DIRECTION('center_axis',(0.,0.,1.));
#281=DIRECTION('ref_axis',(-0.776819332832333,0.629723529922401,0.));
#282=DIRECTION('',(0.,0.,-1.));
#283=DIRECTION('center_axis',(0.,0.,1.));
#284=DIRECTION('ref_axis',(8.63506796930677E-16,1.,0.));
#285=DIRECTION('center_axis',(0.,0.,1.));
#286=DIRECTION('ref_axis',(0.148148148148148,-0.988965179468051,0.));
#287=DIRECTION('',(0.,0.,-1.));
#288=DIRECTION('center_axis',(0.,0.,1.));
#289=DIRECTION('ref_axis',(0.148148148148148,-0.988965179468051,0.));
#290=DIRECTION('center_axis',(0.,0.,1.));
#291=DIRECTION('ref_axis',(0.776819332832328,0.629723529922408,0.));
#292=DIRECTION('center_axis',(0.,0.,-1.));
#293=DIRECTION('ref_axis',(0.776819332832328,0.629723529922408,0.));
#294=DIRECTION('',(0.,0.,1.));
#295=DIRECTION('center_axis',(0.,0.,1.));
#296=DIRECTION('ref_axis',(0.776819332832328,0.629723529922408,0.));
#297=DIRECTION('center_axis',(-1.,0.,0.));
#298=DIRECTION('ref_axis',(0.,-1.,0.));
#299=DIRECTION('',(0.,-1.,0.));
#300=DIRECTION('',(0.,0.,-1.));
#301=DIRECTION('',(0.,-1.,0.));
#302=DIRECTION('center_axis',(0.,0.,1.));
#303=DIRECTION('ref_axis',(-0.776819332832332,-0.629723529922403,0.));
#304=DIRECTION('center_axis',(0.,0.,-1.));
#305=DIRECTION('ref_axis',(-0.776819332832332,-0.629723529922403,0.));
#306=DIRECTION('',(0.,0.,1.));
#307=DIRECTION('center_axis',(0.,0.,1.));
#308=DIRECTION('ref_axis',(-0.776819332832332,-0.629723529922403,0.));
#309=DIRECTION('',(0.,0.,-1.));
#310=DIRECTION('center_axis',(1.,-8.86817965614905E-18,0.));
#311=DIRECTION('ref_axis',(8.86817965614905E-18,1.,0.));
#312=DIRECTION('',(8.86817965614905E-18,1.,0.));
#313=DIRECTION('',(8.86817965614905E-18,1.,0.));
#314=DIRECTION('center_axis',(0.,0.,1.));
#315=DIRECTION('ref_axis',(0.776819332832332,-0.629723529922403,0.));
#316=DIRECTION('center_axis',(0.,0.,-1.));
#317=DIRECTION('ref_axis',(0.776819332832332,-0.629723529922403,0.));
#318=DIRECTION('',(0.,0.,1.));
#319=DIRECTION('center_axis',(0.,0.,1.));
#320=DIRECTION('ref_axis',(0.776819332832332,-0.629723529922403,0.));
#321=DIRECTION('center_axis',(0.,0.,1.));
#322=DIRECTION('ref_axis',(1.29526019539602E-15,-1.,0.));
#323=DIRECTION('center_axis',(0.,0.,1.));
#324=DIRECTION('ref_axis',(-0.148148148148149,0.988965179468051,0.));
#325=DIRECTION('center_axis',(0.,0.,1.));
#326=DIRECTION('ref_axis',(-0.148148148148149,0.988965179468051,0.));
#327=DIRECTION('center_axis',(0.,0.,1.));
#328=DIRECTION('ref_axis',(-1.,0.,0.));
#329=DIRECTION('center_axis',(0.,0.,1.));
#330=DIRECTION('ref_axis',(-1.,0.,0.));
#331=DIRECTION('',(0.,0.,1.));
#332=DIRECTION('center_axis',(0.,0.,-1.));
#333=DIRECTION('ref_axis',(-1.,0.,0.));
#334=DIRECTION('center_axis',(0.,0.,1.));
#335=DIRECTION('ref_axis',(-1.,0.,0.));
#336=DIRECTION('center_axis',(0.,0.,1.));
#337=DIRECTION('ref_axis',(-1.,0.,0.));
#338=DIRECTION('',(0.,0.,1.));
#339=DIRECTION('center_axis',(0.,0.,-1.));
#340=DIRECTION('ref_axis',(-1.,0.,0.));
#341=DIRECTION('center_axis',(0.,0.,1.));
#342=DIRECTION('ref_axis',(1.,0.,0.));
#343=DIRECTION('center_axis',(0.,0.,1.));
#344=DIRECTION('ref_axis',(1.,0.,0.));
#345=CARTESIAN_POINT('',(0.,0.,0.));
#346=CARTESIAN_POINT('Origin',(2.99999999999999,43.8137390408889,0.));
#347=CARTESIAN_POINT('',(1.99999999999999,43.8137390408889,0.));
#348=CARTESIAN_POINT('',(2.79310344827585,44.7921018656552,0.));
#349=CARTESIAN_POINT('Origin',(2.99999999999999,43.8137390408889,0.));
#350=CARTESIAN_POINT('',(2.79310344827585,44.7921018656552,100.));
#351=CARTESIAN_POINT('',(2.79310344827585,44.7921018656552,0.));
#352=CARTESIAN_POINT('',(1.99999999999999,43.8137390408889,100.));
#353=CARTESIAN_POINT('Origin',(2.99999999999999,43.8137390408889,100.));
#354=CARTESIAN_POINT('',(1.99999999999999,43.8137390408889,0.));
#355=CARTESIAN_POINT('Origin',(0.,58.,0.));
#356=CARTESIAN_POINT('',(-2.79310344827587,44.7921018656552,0.));
#357=CARTESIAN_POINT('Origin',(0.,58.,0.));
#358=CARTESIAN_POINT('',(-2.79310344827587,44.7921018656552,100.));
#359=CARTESIAN_POINT('',(-2.79310344827587,44.7921018656552,0.));
#360=CARTESIAN_POINT('Origin',(0.,58.,100.));
#361=CARTESIAN_POINT('Origin',(-3.00000000000001,43.8137390408889,0.));
#362=CARTESIAN_POINT('',(-2.00000000000001,43.8137390408889,0.));
#363=CARTESIAN_POINT('Origin',(-3.00000000000001,43.8137390408889,0.));
#364=CARTESIAN_POINT('',(-2.00000000000001,43.8137390408889,100.));
#365=CARTESIAN_POINT('',(-2.00000000000001,43.8137390408889,0.));
#366=CARTESIAN_POINT('Origin',(-3.00000000000001,43.8137390408889,100.));
#367=CARTESIAN_POINT('Origin',(-2.00000000000001,44.6489700771813,0.));
#368=CARTESIAN_POINT('',(-2.00000000000001,14.1862609591111,0.));
#369=CARTESIAN_POINT('',(-2.00000000000001,44.6489700771813,0.));
#370=CARTESIAN_POINT('',(-2.00000000000001,14.1862609591111,100.));
#371=CARTESIAN_POINT('',(-2.00000000000001,14.1862609591111,0.));
#372=CARTESIAN_POINT('',(-2.00000000000001,44.6489700771813,100.));
#373=CARTESIAN_POINT('Origin',(2.99999999999999,14.1862609591111,0.));
#374=CARTESIAN_POINT('',(2.79310344827585,13.2078981343448,0.));
#375=CARTESIAN_POINT('',(1.99999999999999,14.1862609591111,0.));
#376=CARTESIAN_POINT('Origin',(2.99999999999999,14.1862609591111,0.));
#377=CARTESIAN_POINT('',(1.99999999999999,14.1862609591111,100.));
#378=CARTESIAN_POINT('',(1.99999999999999,14.1862609591111,0.));
#379=CARTESIAN_POINT('',(2.79310344827585,13.2078981343448,100.));
#380=CARTESIAN_POINT('Origin',(2.99999999999999,14.1862609591111,100.));
#381=CARTESIAN_POINT('',(2.79310344827585,13.2078981343448,0.));
#382=CARTESIAN_POINT('Origin',(1.99999999999999,13.3510299228187,0.));
#383=CARTESIAN_POINT('',(1.99999999999999,13.3510299228187,100.));
#384=CARTESIAN_POINT('',(1.99999999999999,13.3510299228187,0.));
#385=CARTESIAN_POINT('Origin',(-3.00000000000001,14.1862609591111,0.));
#386=CARTESIAN_POINT('',(-2.79310344827587,13.2078981343448,0.));
#387=CARTESIAN_POINT('Origin',(-3.00000000000001,14.1862609591111,0.));
#388=CARTESIAN_POINT('',(-2.79310344827587,13.2078981343448,100.));
#389=CARTESIAN_POINT('',(-2.79310344827587,13.2078981343448,0.));
#390=CARTESIAN_POINT('Origin',(-3.00000000000001,14.1862609591111,100.));
#391=CARTESIAN_POINT('Origin',(0.,0.,0.));
#392=CARTESIAN_POINT('Origin',(0.,0.,100.));
#393=CARTESIAN_POINT('Origin',(0.,0.,0.));
#394=CARTESIAN_POINT('Origin',(0.,0.,0.));
#395=CARTESIAN_POINT('',(9.5,1.16341445918999E-15,0.));
#396=CARTESIAN_POINT('Origin',(0.,0.,0.));
#397=CARTESIAN_POINT('',(9.5,1.16341445918999E-15,100.));
#398=CARTESIAN_POINT('',(9.5,1.16341445918999E-15,0.));
#399=CARTESIAN_POINT('Origin',(0.,0.,100.));
#400=CARTESIAN_POINT('Origin',(0.,58.,0.));
#401=CARTESIAN_POINT('',(9.5,58.,0.));
#402=CARTESIAN_POINT('Origin',(0.,58.,0.));
#403=CARTESIAN_POINT('',(9.5,58.,100.));
#404=CARTESIAN_POINT('',(9.5,58.,0.));
#405=CARTESIAN_POINT('Origin',(0.,58.,100.));
#406=CARTESIAN_POINT('Origin',(-2.49154803558098E-15,29.,100.));
#407=CARTESIAN_POINT('Origin',(-2.49154803558098E-15,29.,0.));
#408=UNCERTAINTY_MEASURE_WITH_UNIT(LENGTH_MEASURE(0.01),#412,
'DISTANCE_ACCURACY_VALUE',
'Maximum model space distance between geometric entities at asserted c
onnectivities');
#409=UNCERTAINTY_MEASURE_WITH_UNIT(LENGTH_MEASURE(0.01),#412,
'DISTANCE_ACCURACY_VALUE',
'Maximum model space distance between geometric entities at asserted c
onnectivities');
#410=(
GEOMETRIC_REPRESENTATION_CONTEXT(3)
GLOBAL_UNCERTAINTY_ASSIGNED_CONTEXT((#408))
GLOBAL_UNIT_ASSIGNED_CONTEXT((#412,#415,#414))
REPRESENTATION_CONTEXT('','3D')
);
#411=(
GEOMETRIC_REPRESENTATION_CONTEXT(3)
GLOBAL_UNCERTAINTY_ASSIGNED_CONTEXT((#409))
GLOBAL_UNIT_ASSIGNED_CONTEXT((#412,#415,#414))
REPRESENTATION_CONTEXT('','3D')
);
#412=(
LENGTH_UNIT()
NAMED_UNIT(*)
SI_UNIT(.MILLI.,.METRE.)
);
#413=(
LENGTH_UNIT()
NAMED_UNIT(*)
SI_UNIT(.CENTI.,.METRE.)
);
#414=(
NAMED_UNIT(*)
SI_UNIT($,.STERADIAN.)
SOLID_ANGLE_UNIT()
);
#415=(
NAMED_UNIT(*)
PLANE_ANGLE_UNIT()
SI_UNIT($,.RADIAN.)
);
#416=SHAPE_DEFINITION_REPRESENTATION(#417,#418);
#417=PRODUCT_DEFINITION_SHAPE('',$,#420);
#418=SHAPE_REPRESENTATION('',(#244),#410);
#419=PRODUCT_DEFINITION_CONTEXT('part definition',#424,'design');
#420=PRODUCT_DEFINITION('182785','182785',#421,#419);
#421=PRODUCT_DEFINITION_FORMATION('',$,#426);
#422=PRODUCT_RELATED_PRODUCT_CATEGORY('182785','182785',(#426));
#423=APPLICATION_PROTOCOL_DEFINITION('international standard',
'automotive_design',2009,#424);
#424=APPLICATION_CONTEXT(
'Core Data for Automotive Mechanical Design Process');
#425=PRODUCT_CONTEXT('part definition',#424,'mechanical');
#426=PRODUCT('182785','182785',$,(#425));
#427=PRESENTATION_STYLE_ASSIGNMENT((#429));
#428=PRESENTATION_STYLE_ASSIGNMENT((#430));
#429=SURFACE_STYLE_USAGE(.BOTH.,#431);
#430=SURFACE_STYLE_USAGE(.BOTH.,#432);
#431=SURFACE_SIDE_STYLE('',(#433));
#432=SURFACE_SIDE_STYLE('',(#434));
#433=SURFACE_STYLE_FILL_AREA(#435);
#434=SURFACE_STYLE_FILL_AREA(#436);
#435=FILL_AREA_STYLE('',(#437));
#436=FILL_AREA_STYLE('',(#438));
#437=FILL_AREA_STYLE_COLOUR('',#439);
#438=FILL_AREA_STYLE_COLOUR('',#440);
#439=COLOUR_RGB('',0.811764705882353,0.8,0.823529411764706);
#440=COLOUR_RGB('',0.811764705882353,0.8,0.823529411764706);
ENDSEC;
END-ISO-10303-21;
