                                                                        S      1
,,,6H210100,22HAutodesk Inventor 2021,7Hunknown,32,38,7,99,15,,1.,2,2HMMG      1
,1,0.08,15H20201211.095856,0.01,10000.,6HSpacek,,11,0,15H20200330.000000G      2
;                                                                       G      3
     186       1                                                00000000D      1
     186             -77       1       0                               0D      2
     514       2                                                00010000D      3
     514                       1       1                               0D      4
     510       3                                                00010000D      5
     510             -79       1       1                               0D      6
     510       4                                                00010000D      7
     510             -81       1       1                               0D      8
     510       5                                                00010000D      9
     510             -79       1       1                               0D     10
     510       6                                                00010000D     11
     510             -79       1       1                               0D     12
     510       7                                                00010000D     13
     510             -79       1       1                               0D     14
     510       8                                                00010000D     15
     510             -79       1       1                               0D     16
     508       9                                                00010000D     17
     508                       1       1                               0D     18
     508      10                                                00010000D     19
     508                       2       1                               0D     20
     508      12                                                00010000D     21
     508                       1       1                               0D     22
     508      13                                                00010000D     23
     508                       1       1                               0D     24
     508      14                                                00010000D     25
     508                       2       1                               0D     26
     508      16                                                00010000D     27
     508                       1       1                               0D     28
     508      17                                                00010000D     29
     508                       1       1                               0D     30
     508      18                                                00010000D     31
     508                       1       1                               0D     32
     126      19                                                00010000D     33
     126       0               5       0                               0D     34
     126      24                                                00010000D     35
     126       0               3       0                               0D     36
     126      27                                                00010000D     37
     126       0               9       0                               0D     38
     126      36                                                00010000D     39
     126       0               5       0                               0D     40
     126      41                                                00010000D     41
     126       0               3       0                               0D     42
     126      44                                                00010000D     43
     126       0               5       0                               0D     44
     126      49                                                00010000D     45
     126       0               7       0                               0D     46
     126      56                                                00010000D     47
     126       0              10       0                               0D     48
     126      66                                                00010000D     49
     126       0               4       0                               0D     50
     126      70                                                00010000D     51
     126       0               7       0                               0D     52
     126      77                                                00010000D     53
     126       0               9       0                               0D     54
     126      86                                                00010000D     55
     126       0              14       0                               0D     56
     126     100                                                00010000D     57
     126       0               4       0                               0D     58
     128     104                                                00010000D     59
     128       0     -79      16       0                               0D     60
     128     120                                                00010000D     61
     128       0     -81      17       0                               0D     62
     128     137                                                00010000D     63
     128       0     -79       3       0                               0D     64
     128     140                                                00010000D     65
     128       0     -79      19       0                               0D     66
     128     159                                                00010000D     67
     128       0     -79       5       0                               0D     68
     128     164                                                00010000D     69
     128       0     -79      19       0                               0D     70
     502     183                                                00010000D     71
     502                       4       1                               0D     72
     504     187                                                00010001D     73
     504                       3       1                               0D     74
     406     190                                                00000000D     75
     406                       1      15                               0D     76
     314     191                                                00000200D     77
     314                       1       0                               0D     78
     314     192                                                00000200D     79
     314                       1       0                               0D     80
     314     193                                                00000200D     81
     314                       1       0                               0D     82
186,3,1,0,0,1,75;                                                      1P      1
514,6,5,1,7,1,9,1,11,1,13,1,15,1;                                      3P      2
510,59,1,1,17;                                                         5P      3
510,61,1,1,19;                                                         7P      4
510,63,2,1,21,23;                                                      9P      5
510,65,1,1,25;                                                        11P      6
510,67,2,1,27,29;                                                     13P      7
510,69,1,1,31;                                                        15P      8
508,5,0,73,1,1,0,0,73,2,1,0,0,73,3,0,0,0,73,2,0,0,0,73,4,1,0;         17P      9
508,6,0,73,1,0,0,0,73,5,1,0,0,73,6,1,0,0,73,7,1,0,0,73,5,0,0,0,       19P     10
73,4,0,0;                                                             19P     11
508,1,0,73,3,1,0;                                                     21P     12
508,1,0,73,8,0,0;                                                     23P     13
508,6,0,73,7,0,0,0,73,6,0,0,0,73,9,1,0,0,73,10,1,0,0,73,11,1,0,       25P     14
0,73,9,0,0;                                                           25P     15
508,2,0,73,11,0,0,0,73,10,0,0;                                        27P     16
508,1,0,73,12,1,0;                                                    29P     17
508,4,0,73,8,1,0,0,73,13,1,0,0,73,12,0,0,0,73,13,0,0;                 31P     18
126,4,2,0,0,0,0,-3.14159265358979,-3.14159265358979,                  33P     19
-3.14159265358979,-1.5707963267949,-1.5707963267949,0.,0.,0.,1.,      33P     20
0.707106781186548,1.,0.707106781186548,1.,-7.34788079488412D-16,      33P     21
-6.,-15.125,-6.,-6.,-15.125,-6.,3.67394039744206D-16,-15.125,         33P     22
-6.,6.,-15.125,0.,6.,-15.125,-3.14159265358979,0.,0.,0.,0.;           33P     23
126,1,1,0,0,1,0,-0.241451096014919,-0.241451096014919,                35P     24
9.22052125709048D-17,9.22052125709048D-17,1.,1.,0.,6.,-15.125,        35P     25
0.,5.125,-16.,-0.241451096014919,9.22052125709048D-17,0.,0.,0.;       35P     26
126,8,2,0,1,0,0,0.,0.,0.,1.5707963267949,1.5707963267949,             37P     27
3.14159265358979,3.14159265358979,4.71238898038469,                   37P     28
4.71238898038469,6.28318530717959,6.28318530717959,                   37P     29
6.28318530717959,1.,0.707106781186548,1.,0.707106781186548,1.,        37P     30
0.707106781186548,1.,0.707106781186547,1.,0.,5.125,-16.,5.125,        37P     31
5.125,-16.,5.125,3.13815742281509D-16,-16.,5.125,-5.125,-16.,         37P     32
6.27631484563019D-16,-5.125,-16.,-5.125,-5.125,-16.,-5.125,           37P     33
-9.41447226844528D-16,-16.,-5.125,5.125,-16.,                         37P     34
-1.25526296912604D-15,5.125,-16.,0.,6.28318530717959,0.,0.,0.;        37P     35
126,4,2,0,0,0,0,0.,0.,0.,1.5707963267949,1.5707963267949,             39P     36
3.14159265358979,3.14159265358979,3.14159265358979,1.,                39P     37
0.707106781186548,1.,0.707106781186548,1.,0.,6.,-15.125,6.,6.,        39P     38
-15.125,6.,3.67394039744206D-16,-15.125,6.,-6.,-15.125,               39P     39
7.34788079488412D-16,-6.,-15.125,0.,3.14159265358979,0.,0.,0.;        39P     40
126,1,1,0,0,1,0,0.145833333333333,0.145833333333333,                  41P     41
2.52083333333333,2.52083333333333,1.,1.,0.,-6.,-15.125,0.,-6.,        41P     42
-0.875000000000001,0.145833333333333,2.52083333333333,0.,0.,0.;       41P     43
126,4,2,0,0,0,0,-3.14159265358979,-3.14159265358979,                  43P     44
-3.14159265358979,-1.5707963267949,-1.5707963267949,0.,0.,0.,1.,      43P     45
0.707106781186548,1.,0.707106781186548,1.,-7.34788079488412D-16,      43P     46
-6.,-0.875,-6.,-6.,-0.875,-6.,1.23475577773261D-15,-0.875,-6.,        43P     47
6.,-0.875,0.,6.,-0.875,-3.14159265358979,0.,0.,0.,0.;                 43P     48
126,4,2,0,0,0,0,-6.28318530717959,-6.28318530717959,                  45P     49
-6.28318530717959,-4.71238898038469,-4.71238898038469,                45P     50
-3.14159265358979,-3.14159265358979,-3.14159265358979,1.,             45P     51
0.707106781186547,1.,0.707106781186548,1.,1.46957615897682D-15,       45P     52
6.,-0.875,6.,6.,-0.875,6.,-2.34820381244214D-16,-0.875,6.,-6.,        45P     53
-0.875,-7.34788079488412D-16,-6.,-0.875,-6.28318530717959,            45P     54
-3.14159265358979,0.,0.,0.;                                           45P     55
126,8,2,0,1,0,0,0.,0.,0.,1.5707963267949,1.5707963267949,             47P     56
3.14159265358979,3.14159265358979,4.71238898038469,                   47P     57
4.71238898038469,6.28318530717959,6.28318530717959,                   47P     58
6.28318530717959,1.,0.707106781186548,1.,0.707106781186548,1.,        47P     59
0.707106781186548,1.,0.707106781186548,1.,0.,3.826383,-16.,           47P     60
3.826383,3.826383,-16.,3.826383,2.34298384663092D-16,-16.,            47P     61
3.826383,-3.826383,-16.,4.68596769326185D-16,-3.826383,-16.,          47P     62
-3.826383,-3.826383,-16.,-3.826383,-7.02895153989277D-16,-16.,        47P     63
-3.826383,3.826383,-16.,-9.37193538652369D-16,3.826383,-16.,0.,       47P     64
6.28318530717959,0.,0.,0.;                                            47P     65
126,1,1,0,0,1,0,-1.38777878078145D-16,-1.38777878078145D-16,          49P     66
0.206239477846076,0.206239477846076,1.,1.,0.,-6.,-0.875,0.,           49P     67
-5.125,1.11022302462516D-15,-1.38777878078145D-16,                    49P     68
0.206239477846076,0.,0.,0.;                                           49P     69
126,4,2,0,0,0,0,-3.14159265358979,-3.14159265358979,                  51P     70
-3.14159265358979,-1.5707963267949,-1.5707963267949,0.,0.,0.,1.,      51P     71
0.707106781186548,1.,0.707106781186548,1.,-6.27631484563019D-16,      51P     72
-5.125,3.13815742281509D-16,-5.125,-5.125,3.13815742281509D-16,       51P     73
-5.125,1.18117748026991D-15,-1.92156722153551D-32,-5.125,5.125,       51P     74
-3.13815742281509D-16,0.,5.125,-3.13815742281509D-16,                 51P     75
-3.14159265358979,0.,0.,0.,0.;                                        51P     76
126,4,2,0,0,0,0,-6.28318530717959,-6.28318530717959,                  53P     77
-6.28318530717959,-4.71238898038469,-4.71238898038469,                53P     78
-3.14159265358979,-3.14159265358979,-3.14159265358979,1.,             53P     79
0.707106781186547,1.,0.707106781186548,1.,1.25526296912604D-15,       53P     80
5.125,-3.13815742281509D-16,5.125,5.125,-3.13815742281509D-16,        53P     81
5.125,-7.40854888561238D-17,5.76470166460652D-32,5.125,-5.125,        53P     82
3.13815742281509D-16,-6.27631484563019D-16,-5.125,                    53P     83
3.13815742281509D-16,-6.28318530717959,-3.14159265358979,0.,0.,       53P     84
0.;                                                                   53P     85
126,8,2,0,1,0,0,0.,0.,0.,1.5707963267949,1.5707963267949,             55P     86
3.14159265358979,3.14159265358979,4.71238898038469,                   55P     87
4.71238898038469,6.28318530717959,6.28318530717959,                   55P     88
6.28318530717959,1.,0.707106781186548,1.,0.707106781186547,1.,        55P     89
0.707106781186548,1.,0.707106781186548,1.,0.,4.32640798726592,        55P     90
-2.64916084670538D-16,4.32640798726592,4.32640798726592,              55P     91
-2.64916084670538D-16,4.32640798726592,1.13227782265894D-15,          55P     92
-1.62214317567212D-32,4.32640798726592,-4.32640798726592,             55P     93
2.64916084670538D-16,5.29832169341075D-16,-4.32640798726592,          55P     94
2.64916084670538D-16,-4.32640798726592,-4.32640798726592,             55P     95
2.64916084670538D-16,-4.32640798726592,7.26134839767912D-17,          55P     96
4.86642952701635D-32,-4.32640798726592,4.32640798726592,              55P     97
-2.64916084670538D-16,-1.05966433868215D-15,4.32640798726592,         55P     98
-2.64916084670538D-16,0.,6.28318530717959,0.,0.,0.;                   55P     99
126,1,1,0,0,1,0,-2.00294591945285D-18,-2.00294591945285D-18,          57P    100
4.18353608984586,4.18353608984586,1.,1.,0.,3.826383,-16.,0.,          57P    101
4.32640798726594,0.,-2.00294591945285D-18,4.18353608984586,0.,        57P    102
0.,0.;                                                                57P    103
128,1,8,1,2,0,1,0,0,1,-9.22052125709048D-17,                          59P    104
-9.22052125709048D-17,0.241451096014919,0.241451096014919,            59P    105
-3.14159265358979,-3.14159265358979,-3.14159265358979,                59P    106
-1.5707963267949,-1.5707963267949,0.,0.,1.5707963267949,              59P    107
1.5707963267949,3.14159265358979,3.14159265358979,                    59P    108
3.14159265358979,1.,1.,0.707106781186548,0.707106781186548,1.,        59P    109
1.,0.707106781186548,0.707106781186548,1.,1.,0.707106781186548,       59P    110
0.707106781186548,1.,1.,0.707106781186548,0.707106781186548,1.,       59P    111
1.,0.,6.,-15.125,0.,5.125,-16.,-6.,6.,-15.125,-5.125,5.125,-16.,      59P    112
-6.,5.35782974626967D-17,-15.125,-5.125,-1.92156722153551D-32,        59P    113
-16.,-6.,-6.,-15.125,-5.125,-5.125,-16.,0.,-6.,-15.125,0.,            59P    114
-5.125,-16.,6.,-6.,-15.125,5.125,-5.125,-16.,6.,                      59P    115
5.35782974626967D-17,-15.125,5.125,-1.92156722153551D-32,-16.,        59P    116
6.,6.,-15.125,5.125,5.125,-16.,0.,6.,-15.125,0.,5.125,-16.,           59P    117
-9.22052125709048D-17,0.241451096014919,-3.14159265358979,            59P    118
3.14159265358979;                                                     59P    119
128,1,8,1,2,0,1,0,0,1,-2.52083333333333,-2.52083333333333,            61P    120
-0.145833333333333,-0.145833333333333,-3.14159265358979,              61P    121
-3.14159265358979,-3.14159265358979,-1.5707963267949,                 61P    122
-1.5707963267949,0.,0.,1.5707963267949,1.5707963267949,               61P    123
3.14159265358979,3.14159265358979,3.14159265358979,1.,1.,             61P    124
0.707106781186548,0.707106781186548,1.,1.,0.707106781186548,          61P    125
0.707106781186548,1.,1.,0.707106781186548,0.707106781186548,1.,       61P    126
1.,0.707106781186548,0.707106781186548,1.,1.,0.,-6.,-15.125,0.,       61P    127
-6.,-0.875000000000001,-6.,-6.,-15.125,-6.,-6.,                       61P    128
-0.875000000000001,-6.,5.35782974626967D-17,-15.125,-6.,              61P    129
9.26139141855187D-16,-0.875000000000001,-6.,6.,-15.125,-6.,6.,        61P    130
-0.875000000000001,0.,6.,-15.125,0.,6.,-0.875000000000001,6.,6.,      61P    131
-15.125,6.,6.,-0.875000000000001,6.,5.35782974626967D-17,             61P    132
-15.125,6.,9.26139141855187D-16,-0.875000000000001,6.,-6.,            61P    133
-15.125,6.,-6.,-0.875000000000001,0.,-6.,-15.125,0.,-6.,              61P    134
-0.875000000000001,-2.52083333333333,-0.145833333333333,              61P    135
-3.14159265358979,3.14159265358979;                                   61P    136
128,1,1,1,1,0,0,1,0,0,-5.126,-5.126,5.126,5.126,-5.126,-5.126,        63P    137
5.126,5.126,1.,1.,1.,1.,-5.126,-5.126,-16.,-5.126,5.126,-16.,         63P    138
5.126,-5.126,-16.,5.126,5.126,-16.,-5.126,5.126,-5.126,5.126;         63P    139
128,1,8,1,2,0,1,0,0,1,-0.206239477846076,-0.206239477846076,          65P    140
1.38777878078145D-16,1.38777878078145D-16,-3.14159265358979,          65P    141
-3.14159265358979,-3.14159265358979,-1.5707963267949,                 65P    142
-1.5707963267949,0.,0.,1.5707963267949,1.5707963267949,               65P    143
3.14159265358979,3.14159265358979,3.14159265358979,1.,1.,             65P    144
0.707106781186548,0.707106781186548,1.,1.,0.707106781186548,          65P    145
0.707106781186548,1.,1.,0.707106781186548,0.707106781186548,1.,       65P    146
1.,0.707106781186548,0.707106781186548,1.,1.,0.,-6.,-0.875,0.,        65P    147
-5.125,1.11022302462516D-15,-6.,-6.,-0.875,-5.125,-5.125,             65P    148
1.11022302462516D-15,-6.,8.67361737988404D-16,                        65P    149
-0.875000000000001,-5.125,9.20940035451101D-16,                       65P    150
8.32667268468867D-16,-6.,6.,-0.875000000000001,-5.125,5.125,          65P    151
5.55111512312578D-16,0.,6.,-0.875000000000001,0.,5.125,               65P    152
5.55111512312578D-16,6.,6.,-0.875000000000001,5.125,5.125,            65P    153
5.55111512312578D-16,6.,8.67361737988404D-16,-0.875000000000001,      65P    154
5.125,9.20940035451101D-16,8.32667268468867D-16,6.,-6.,-0.875,        65P    155
5.125,-5.125,1.11022302462516D-15,0.,-6.,-0.875,0.,-5.125,            65P    156
1.11022302462516D-15,-0.206239477846076,1.38777878078145D-16,         65P    157
-3.14159265358979,3.14159265358979;                                   65P    158
128,1,1,1,1,0,0,1,0,0,-5.126,-5.126,5.126,5.126,-10.251,-10.251,      67P    159
0.00100000000000089,0.00100000000000089,1.,1.,1.,1.,-5.126,           67P    160
5.126,-3.13876974621467D-16,-5.126,-5.126,3.13876974621467D-16,       67P    161
5.126,5.126,-3.13876974621467D-16,5.126,-5.126,                       67P    162
3.13876974621467D-16,-5.126,5.126,-10.251,0.00100000000000089;        67P    163
128,1,8,1,2,0,1,0,0,1,-2.00294591945285D-18,                          69P    164
-2.00294591945285D-18,4.18353608984586,4.18353608984586,              69P    165
-3.14159265358979,-3.14159265358979,-3.14159265358979,                69P    166
-1.5707963267949,-1.5707963267949,0.,0.,1.5707963267949,              69P    167
1.5707963267949,3.14159265358979,3.14159265358979,                    69P    168
3.14159265358979,1.,1.,0.707106781186548,0.707106781186548,1.,        69P    169
1.,0.707106781186548,0.707106781186548,1.,1.,0.707106781186548,       69P    170
0.707106781186548,1.,1.,0.707106781186548,0.707106781186548,1.,       69P    171
1.,0.,3.826383,-16.,0.,4.32640798726594,0.,-3.826383,3.826383,        69P    172
-16.,-4.32640798726593,4.32640798726594,0.,-3.826383,                 69P    173
-1.43466383411526D-32,-16.,-4.32640798726594,                         69P    174
9.79717439317883D-16,0.,-3.826383,-3.826383,-16.,                     69P    175
-4.32640798726593,-4.32640798726593,0.,0.,-3.826383,-16.,0.,          69P    176
-4.32640798726593,0.,3.826383,-3.826383,-16.,4.32640798726593,        69P    177
-4.32640798726593,0.,3.826383,-1.43466383411526D-32,-16.,             69P    178
4.32640798726594,9.79717439317883D-16,0.,3.826383,3.826383,-16.,      69P    179
4.32640798726593,4.32640798726594,0.,0.,3.826383,-16.,0.,             69P    180
4.32640798726594,0.,-2.00294591945285D-18,4.18353608984586,           69P    181
-3.14159265358979,3.14159265358979;                                   69P    182
502,9,-7.34788079488412D-16,-6.,-15.125,0.,6.,-15.125,0.,5.125,       71P    183
-16.,0.,-6.,-0.875000000000001,0.,6.,-0.875,0.,3.826383,-16.,0.,      71P    184
-5.125,1.11022302462516D-15,0.,5.125,-3.13815742281509D-16,0.,        71P    185
4.32640798726592,-2.64916084670538D-16;                               71P    186
504,13,33,71,1,71,2,35,71,2,71,3,37,71,3,71,3,39,71,2,71,1,41,        73P    187
71,1,71,4,43,71,4,71,5,45,71,5,71,4,47,71,6,71,6,49,71,4,71,7,        73P    188
51,71,7,71,8,53,71,8,71,7,55,71,9,71,9,57,71,6,71,9;                  73P    189
406,1,8HTěleso3;                                                     75P    190
314,74.9019607843137,74.9019607843137,74.9019607843137,;              77P    191
314,75.2941176470588,75.2941176470588,75.2941176470588,;              79P    192
314,100.,100.,100.,;                                                  81P    193
S      1G      3D     82P    193                                        T      1
