ISO-10303-21;
HEADER;
/* Generated by software containing ST-Developer
 * from STEP Tools, Inc. (www.steptools.com) 
 */

FILE_DESCRIPTION(
/* description */ (''),
/* implementation_level */ '2;1');

FILE_NAME(
/* name */ 
'D:\\VaultPracovni\\Zak\X\E1zky\\P\X2\015900ED\X0\slu\X2\0161\X0\enstv
\X\ED k profil\X2\016F\X0\m\\Trubkov\X\FD syst\X\E9m\\Novinky 28.5.202
0\\210100_Redukce z\X\E1vitu z M12 na M8\\210100.stp',
/* time_stamp */ '2020-12-11T09:58:56+01:00',
/* author */ ('Spacek'),
/* organization */ ('Alutec K&K'),
/* preprocessor_version */ 'ST-DEVELOPER v18.1',
/* originating_system */ 'Autodesk Inventor 2021',
/* authorisation */ '');

FILE_SCHEMA (('AUTOMOTIVE_DESIGN { 1 0 10303 214 3 1 1 }'));
ENDSEC;

DATA;
#10=MECHANICAL_DESIGN_GEOMETRIC_PRESENTATION_REPRESENTATION('',(#91,#92,
#93,#94,#95,#96,#97),#197);
#11=SHAPE_REPRESENTATION_RELATIONSHIP('SRR','None',#204,#12);
#12=ADVANCED_BREP_SHAPE_REPRESENTATION('',(#13),#196);
#13=MANIFOLD_SOLID_BREP('T\X2\011B\X0\leso3',#104);
#14=FACE_BOUND('',#28,.T.);
#15=FACE_BOUND('',#31,.T.);
#16=PLANE('',#130);
#17=PLANE('',#134);
#18=CYLINDRICAL_SURFACE('',#128,6.);
#19=FACE_OUTER_BOUND('',#25,.T.);
#20=FACE_OUTER_BOUND('',#26,.T.);
#21=FACE_OUTER_BOUND('',#27,.T.);
#22=FACE_OUTER_BOUND('',#29,.T.);
#23=FACE_OUTER_BOUND('',#30,.T.);
#24=FACE_OUTER_BOUND('',#32,.T.);
#25=EDGE_LOOP('',(#66,#67,#68,#69,#70));
#26=EDGE_LOOP('',(#71,#72,#73,#74,#75));
#27=EDGE_LOOP('',(#76));
#28=EDGE_LOOP('',(#77));
#29=EDGE_LOOP('',(#78,#79,#80,#81));
#30=EDGE_LOOP('',(#82));
#31=EDGE_LOOP('',(#83));
#32=EDGE_LOOP('',(#84,#85,#86,#87));
#33=LINE('',#175,#37);
#34=LINE('',#180,#38);
#35=LINE('',#187,#39);
#36=LINE('',#193,#40);
#37=VECTOR('',#143,5.125);
#38=VECTOR('',#150,6.);
#39=VECTOR('',#159,6.);
#40=VECTOR('',#168,3.826383);
#41=CIRCLE('',#125,6.);
#42=CIRCLE('',#126,5.125);
#43=CIRCLE('',#127,6.);
#44=CIRCLE('',#129,6.);
#45=CIRCLE('',#131,3.826383);
#46=CIRCLE('',#133,5.125);
#47=CIRCLE('',#135,4.32640798726592);
#48=VERTEX_POINT('',#171);
#49=VERTEX_POINT('',#172);
#50=VERTEX_POINT('',#174);
#51=VERTEX_POINT('',#179);
#52=VERTEX_POINT('',#183);
#53=VERTEX_POINT('',#186);
#54=VERTEX_POINT('',#190);
#55=EDGE_CURVE('',#48,#49,#41,.T.);
#56=EDGE_CURVE('',#49,#50,#33,.T.);
#57=EDGE_CURVE('',#50,#50,#42,.T.);
#58=EDGE_CURVE('',#49,#48,#43,.T.);
#59=EDGE_CURVE('',#48,#51,#34,.T.);
#60=EDGE_CURVE('',#51,#51,#44,.T.);
#61=EDGE_CURVE('',#52,#52,#45,.T.);
#62=EDGE_CURVE('',#51,#53,#35,.T.);
#63=EDGE_CURVE('',#53,#53,#46,.T.);
#64=EDGE_CURVE('',#54,#54,#47,.T.);
#65=EDGE_CURVE('',#52,#54,#36,.T.);
#66=ORIENTED_EDGE('',*,*,#55,.T.);
#67=ORIENTED_EDGE('',*,*,#56,.T.);
#68=ORIENTED_EDGE('',*,*,#57,.F.);
#69=ORIENTED_EDGE('',*,*,#56,.F.);
#70=ORIENTED_EDGE('',*,*,#58,.T.);
#71=ORIENTED_EDGE('',*,*,#55,.F.);
#72=ORIENTED_EDGE('',*,*,#59,.T.);
#73=ORIENTED_EDGE('',*,*,#60,.T.);
#74=ORIENTED_EDGE('',*,*,#59,.F.);
#75=ORIENTED_EDGE('',*,*,#58,.F.);
#76=ORIENTED_EDGE('',*,*,#57,.T.);
#77=ORIENTED_EDGE('',*,*,#61,.F.);
#78=ORIENTED_EDGE('',*,*,#60,.F.);
#79=ORIENTED_EDGE('',*,*,#62,.T.);
#80=ORIENTED_EDGE('',*,*,#63,.T.);
#81=ORIENTED_EDGE('',*,*,#62,.F.);
#82=ORIENTED_EDGE('',*,*,#63,.F.);
#83=ORIENTED_EDGE('',*,*,#64,.T.);
#84=ORIENTED_EDGE('',*,*,#61,.T.);
#85=ORIENTED_EDGE('',*,*,#65,.T.);
#86=ORIENTED_EDGE('',*,*,#64,.F.);
#87=ORIENTED_EDGE('',*,*,#65,.F.);
#88=CONICAL_SURFACE('',#124,5.125,0.785398163397449);
#89=CONICAL_SURFACE('',#132,6.,0.785398163397448);
#90=CONICAL_SURFACE('',#136,3.826383,0.0312413936106994);
#91=STYLED_ITEM('',(#214),#98);
#92=STYLED_ITEM('',(#215),#99);
#93=STYLED_ITEM('',(#214),#100);
#94=STYLED_ITEM('',(#214),#101);
#95=STYLED_ITEM('',(#214),#102);
#96=STYLED_ITEM('',(#214),#103);
#97=STYLED_ITEM('',(#213),#13);
#98=ADVANCED_FACE('',(#19),#88,.T.);
#99=ADVANCED_FACE('',(#20),#18,.T.);
#100=ADVANCED_FACE('',(#21,#14),#16,.T.);
#101=ADVANCED_FACE('',(#22),#89,.T.);
#102=ADVANCED_FACE('',(#23,#15),#17,.T.);
#103=ADVANCED_FACE('',(#24),#90,.F.);
#104=CLOSED_SHELL('',(#98,#99,#100,#101,#102,#103));
#105=DERIVED_UNIT_ELEMENT(#107,1.);
#106=DERIVED_UNIT_ELEMENT(#199,3.);
#107=(
MASS_UNIT()
NAMED_UNIT(*)
SI_UNIT($,.GRAM.)
);
#108=DERIVED_UNIT((#105,#106));
#109=MEASURE_REPRESENTATION_ITEM('density measure',
POSITIVE_RATIO_MEASURE(1.),#108);
#110=PROPERTY_DEFINITION_REPRESENTATION(#115,#112);
#111=PROPERTY_DEFINITION_REPRESENTATION(#116,#113);
#112=REPRESENTATION('material name',(#114),#196);
#113=REPRESENTATION('density',(#109),#196);
#114=DESCRIPTIVE_REPRESENTATION_ITEM('V\X2\0161\X0\eobecn\X\E9',
'V\X2\0161\X0\eobecn\X\E9');
#115=PROPERTY_DEFINITION('material property','material name',#206);
#116=PROPERTY_DEFINITION('material property','density of part',#206);
#117=DATE_TIME_ROLE('creation_date');
#118=APPLIED_DATE_AND_TIME_ASSIGNMENT(#119,#117,(#206));
#119=DATE_AND_TIME(#120,#121);
#120=CALENDAR_DATE(2020,30,3);
#121=LOCAL_TIME(0,0,0.,#122);
#122=COORDINATED_UNIVERSAL_TIME_OFFSET(0,0,.BEHIND.);
#123=AXIS2_PLACEMENT_3D('placement',#169,#137,#138);
#124=AXIS2_PLACEMENT_3D('',#170,#139,#140);
#125=AXIS2_PLACEMENT_3D('',#173,#141,#142);
#126=AXIS2_PLACEMENT_3D('',#176,#144,#145);
#127=AXIS2_PLACEMENT_3D('',#177,#146,#147);
#128=AXIS2_PLACEMENT_3D('',#178,#148,#149);
#129=AXIS2_PLACEMENT_3D('',#181,#151,#152);
#130=AXIS2_PLACEMENT_3D('',#182,#153,#154);
#131=AXIS2_PLACEMENT_3D('',#184,#155,#156);
#132=AXIS2_PLACEMENT_3D('',#185,#157,#158);
#133=AXIS2_PLACEMENT_3D('',#188,#160,#161);
#134=AXIS2_PLACEMENT_3D('',#189,#162,#163);
#135=AXIS2_PLACEMENT_3D('',#191,#164,#165);
#136=AXIS2_PLACEMENT_3D('',#192,#166,#167);
#137=DIRECTION('axis',(0.,0.,1.));
#138=DIRECTION('refdir',(1.,0.,0.));
#139=DIRECTION('center_axis',(0.,6.12323399573677E-17,1.));
#140=DIRECTION('ref_axis',(0.,-1.,6.12323399573677E-17));
#141=DIRECTION('center_axis',(0.,-6.12323399573677E-17,-1.));
#142=DIRECTION('ref_axis',(0.,1.,-6.12323399573677E-17));
#143=DIRECTION('',(8.65956056235494E-17,-0.707106781186548,-0.707106781186547));
#144=DIRECTION('center_axis',(0.,-6.12323399573677E-17,-1.));
#145=DIRECTION('ref_axis',(0.,1.,-6.12323399573677E-17));
#146=DIRECTION('center_axis',(0.,-6.12323399573677E-17,-1.));
#147=DIRECTION('ref_axis',(0.,1.,-6.12323399573677E-17));
#148=DIRECTION('center_axis',(0.,-6.12323399573677E-17,-1.));
#149=DIRECTION('ref_axis',(0.,1.,-6.12323399573677E-17));
#150=DIRECTION('',(0.,6.12323399573677E-17,1.));
#151=DIRECTION('center_axis',(0.,-6.12323399573677E-17,-1.));
#152=DIRECTION('ref_axis',(0.,1.,-6.12323399573677E-17));
#153=DIRECTION('center_axis',(0.,-6.12323399573677E-17,-1.));
#154=DIRECTION('ref_axis',(0.,1.,-6.12323399573677E-17));
#155=DIRECTION('center_axis',(0.,-6.12323399573677E-17,-1.));
#156=DIRECTION('ref_axis',(0.,1.,-6.12323399573677E-17));
#157=DIRECTION('center_axis',(0.,-6.12323399573677E-17,-1.));
#158=DIRECTION('ref_axis',(0.,1.,-6.12323399573677E-17));
#159=DIRECTION('',(8.65956056235493E-17,0.707106781186547,0.707106781186548));
#160=DIRECTION('center_axis',(0.,-6.12323399573677E-17,-1.));
#161=DIRECTION('ref_axis',(0.,1.,-6.12323399573677E-17));
#162=DIRECTION('center_axis',(0.,6.12323399573677E-17,1.));
#163=DIRECTION('ref_axis',(0.,-1.,6.12323399573677E-17));
#164=DIRECTION('center_axis',(0.,-6.12323399573677E-17,-1.));
#165=DIRECTION('ref_axis',(0.,1.,-6.12323399573677E-17));
#166=DIRECTION('center_axis',(0.,6.12323399573677E-17,1.));
#167=DIRECTION('ref_axis',(0.,-1.,6.12323399573677E-17));
#168=DIRECTION('',(-3.82534492591994E-18,0.031236311796865,0.999512027354013));
#169=CARTESIAN_POINT('',(0.,0.,0.));
#170=CARTESIAN_POINT('Origin',(0.,0.,-16.));
#171=CARTESIAN_POINT('',(-7.34788079488412E-16,-6.,-15.125));
#172=CARTESIAN_POINT('',(-7.34788079488412E-16,6.,-15.125));
#173=CARTESIAN_POINT('Origin',(0.,0.,-15.125));
#174=CARTESIAN_POINT('',(0.,5.125,-16.));
#175=CARTESIAN_POINT('',(-6.27631484563019E-16,5.125,-16.));
#176=CARTESIAN_POINT('Origin',(0.,0.,-16.));
#177=CARTESIAN_POINT('Origin',(0.,0.,-15.125));
#178=CARTESIAN_POINT('Origin',(0.,0.,-16.));
#179=CARTESIAN_POINT('',(-7.34788079488412E-16,-6.,-0.875000000000001));
#180=CARTESIAN_POINT('',(-7.34788079488412E-16,-6.,-16.));
#181=CARTESIAN_POINT('Origin',(0.,8.67361737988404E-16,-0.875));
#182=CARTESIAN_POINT('Origin',(0.,0.,-16.));
#183=CARTESIAN_POINT('',(0.,3.826383,-16.));
#184=CARTESIAN_POINT('Origin',(0.,0.,-16.));
#185=CARTESIAN_POINT('Origin',(0.,8.67361737988404E-16,-0.875));
#186=CARTESIAN_POINT('',(-6.27631484563019E-16,-5.125,1.38777878078145E-15));
#187=CARTESIAN_POINT('',(-7.34788079488412E-16,-6.,-0.875));
#188=CARTESIAN_POINT('Origin',(0.,8.67361737988404E-16,0.));
#189=CARTESIAN_POINT('Origin',(5.125,8.67361737988404E-16,0.));
#190=CARTESIAN_POINT('',(0.,4.32640798726592,-2.64916084670538E-16));
#191=CARTESIAN_POINT('Origin',(0.,8.67361737988404E-16,0.));
#192=CARTESIAN_POINT('Origin',(0.,0.,-16.));
#193=CARTESIAN_POINT('',(-4.68596769326185E-16,3.826383,-16.));
#194=UNCERTAINTY_MEASURE_WITH_UNIT(LENGTH_MEASURE(0.01),#198,
'DISTANCE_ACCURACY_VALUE',
'Maximum model space distance between geometric entities at asserted c
onnectivities');
#195=UNCERTAINTY_MEASURE_WITH_UNIT(LENGTH_MEASURE(0.01),#198,
'DISTANCE_ACCURACY_VALUE',
'Maximum model space distance between geometric entities at asserted c
onnectivities');
#196=(
GEOMETRIC_REPRESENTATION_CONTEXT(3)
GLOBAL_UNCERTAINTY_ASSIGNED_CONTEXT((#194))
GLOBAL_UNIT_ASSIGNED_CONTEXT((#198,#200,#201))
REPRESENTATION_CONTEXT('','3D')
);
#197=(
GEOMETRIC_REPRESENTATION_CONTEXT(3)
GLOBAL_UNCERTAINTY_ASSIGNED_CONTEXT((#195))
GLOBAL_UNIT_ASSIGNED_CONTEXT((#198,#200,#201))
REPRESENTATION_CONTEXT('','3D')
);
#198=(
LENGTH_UNIT()
NAMED_UNIT(*)
SI_UNIT(.MILLI.,.METRE.)
);
#199=(
LENGTH_UNIT()
NAMED_UNIT(*)
SI_UNIT(.CENTI.,.METRE.)
);
#200=(
NAMED_UNIT(*)
PLANE_ANGLE_UNIT()
SI_UNIT($,.RADIAN.)
);
#201=(
NAMED_UNIT(*)
SI_UNIT($,.STERADIAN.)
SOLID_ANGLE_UNIT()
);
#202=SHAPE_DEFINITION_REPRESENTATION(#203,#204);
#203=PRODUCT_DEFINITION_SHAPE('',$,#206);
#204=SHAPE_REPRESENTATION('',(#123),#196);
#205=PRODUCT_DEFINITION_CONTEXT('part definition',#210,'design');
#206=PRODUCT_DEFINITION('210100','210100',#207,#205);
#207=PRODUCT_DEFINITION_FORMATION('',$,#212);
#208=PRODUCT_RELATED_PRODUCT_CATEGORY('210100','210100',(#212));
#209=APPLICATION_PROTOCOL_DEFINITION('international standard',
'automotive_design',2009,#210);
#210=APPLICATION_CONTEXT(
'Core Data for Automotive Mechanical Design Process');
#211=PRODUCT_CONTEXT('part definition',#210,'mechanical');
#212=PRODUCT('210100','210100',$,(#211));
#213=PRESENTATION_STYLE_ASSIGNMENT((#216));
#214=PRESENTATION_STYLE_ASSIGNMENT((#217));
#215=PRESENTATION_STYLE_ASSIGNMENT((#218));
#216=SURFACE_STYLE_USAGE(.BOTH.,#225);
#217=SURFACE_STYLE_USAGE(.BOTH.,#226);
#218=SURFACE_STYLE_USAGE(.BOTH.,#227);
#219=SURFACE_STYLE_RENDERING_WITH_PROPERTIES($,#237,(#222));
#220=SURFACE_STYLE_RENDERING_WITH_PROPERTIES($,#238,(#223));
#221=SURFACE_STYLE_RENDERING_WITH_PROPERTIES($,#239,(#224));
#222=SURFACE_STYLE_TRANSPARENT(0.);
#223=SURFACE_STYLE_TRANSPARENT(0.);
#224=SURFACE_STYLE_TRANSPARENT(0.);
#225=SURFACE_SIDE_STYLE('',(#228,#219));
#226=SURFACE_SIDE_STYLE('',(#229,#220));
#227=SURFACE_SIDE_STYLE('',(#230,#221));
#228=SURFACE_STYLE_FILL_AREA(#231);
#229=SURFACE_STYLE_FILL_AREA(#232);
#230=SURFACE_STYLE_FILL_AREA(#233);
#231=FILL_AREA_STYLE('',(#234));
#232=FILL_AREA_STYLE('',(#235));
#233=FILL_AREA_STYLE('',(#236));
#234=FILL_AREA_STYLE_COLOUR('',#237);
#235=FILL_AREA_STYLE_COLOUR('',#238);
#236=FILL_AREA_STYLE_COLOUR('',#239);
#237=COLOUR_RGB('',0.749019607843137,0.749019607843137,0.749019607843137);
#238=COLOUR_RGB('',0.752941176470588,0.752941176470588,0.752941176470588);
#239=COLOUR_RGB('',1.,1.,1.);
ENDSEC;
END-ISO-10303-21;
