                                                                        S      1
,,,6H220030,22HAutodesk Inventor 2021,7Hunknown,32,38,7,99,15,,1.,2,2HMMG      1
,1,0.08,15H20201211.080851,0.01,10000.,6HNockin,,11,0,15H20190612.000000G      2
;                                                                       G      3
     186       1                                                00000000D      1
     186            -105       1       0                               0D      2
     514       2                                                00010000D      3
     514                       1       1                               0D      4
     510       3                                                00010000D      5
     510            -105       1       1                               0D      6
     510       4                                                00010000D      7
     510            -105       1       1                               0D      8
     510       5                                                00010000D      9
     510            -105       1       1                               0D     10
     510       6                                                00010000D     11
     510            -105       1       1                               0D     12
     510       7                                                00010000D     13
     510            -105       1       1                               0D     14
     510       8                                                00010000D     15
     510            -105       1       1                               0D     16
     510       9                                                00010000D     17
     510            -105       1       1                               0D     18
     510      10                                                00010000D     19
     510            -105       1       1                               0D     20
     510      11                                                00010000D     21
     510            -105       1       1                               0D     22
     508      12                                                00010000D     23
     508                       1       1                               0D     24
     508      13                                                00010000D     25
     508                       1       1                               0D     26
     508      14                                                00010000D     27
     508                       1       1                               0D     28
     508      15                                                00010000D     29
     508                       1       1                               0D     30
     508      16                                                00010000D     31
     508                       1       1                               0D     32
     508      17                                                00010000D     33
     508                       1       1                               0D     34
     508      18                                                00010000D     35
     508                       2       1                               0D     36
     508      20                                                00010000D     37
     508                       2       1                               0D     38
     508      22                                                00010000D     39
     508                       2       1                               0D     40
     508      24                                                00010000D     41
     508                       1       1                               0D     42
     508      25                                                00010000D     43
     508                       1       1                               0D     44
     126      26                                                00010000D     45
     126       0              10       0                               0D     46
     126      36                                                00010000D     47
     126       0               2       0                               0D     48
     126      38                                                00010000D     49
     126       0              10       0                               0D     50
     126      48                                                00010000D     51
     126       0               9       0                               0D     52
     126      57                                                00010000D     53
     126       0               2       0                               0D     54
     126      59                                                00010000D     55
     126       0               9       0                               0D     56
     126      68                                                00010000D     57
     126       0               5       0                               0D     58
     126      73                                                00010000D     59
     126       0               5       0                               0D     60
     126      78                                                00010000D     61
     126       0               5       0                               0D     62
     126      83                                                00010000D     63
     126       0               5       0                               0D     64
     126      88                                                00010000D     65
     126       0               3       0                               0D     66
     126      91                                                00010000D     67
     126       0               5       0                               0D     68
     126      96                                                00010000D     69
     126       0               5       0                               0D     70
     126     101                                                00010000D     71
     126       0               3       0                               0D     72
     126     104                                                00010000D     73
     126       0               3       0                               0D     74
     126     107                                                00010000D     75
     126       0               8       0                               0D     76
     126     115                                                00010000D     77
     126       0               5       0                               0D     78
     126     120                                                00010000D     79
     126       0               3       0                               0D     80
     128     123                                                00010000D     81
     128       0    -105      12       0                               0D     82
     128     135                                                00010000D     83
     128       0    -105       3       0                               0D     84
     128     138                                                00010000D     85
     128       0    -105      11       0                               0D     86
     128     149                                                00010000D     87
     128       0    -105       3       0                               0D     88
     128     152                                                00010000D     89
     128       0    -105       3       0                               0D     90
     128     155                                                00010000D     91
     128       0    -105      13       0                               0D     92
     128     168                                                00010000D     93
     128       0    -105      13       0                               0D     94
     128     181                                                00010000D     95
     128       0    -105      16       0                               0D     96
     128     197                                                00010000D     97
     128       0    -105       3       0                               0D     98
     502     200                                                00010000D     99
     502                       4       1                               0D    100
     504     204                                                00010001D    101
     504                       5       1                               0D    102
     406     209                                                00000000D    103
     406                       1      15                               0D    104
     314     210                                                00000200D    105
     314                       1       0                               0D    106
186,3,1,0,0,1,103;                                                     1P      1
514,9,5,1,7,1,9,1,11,1,13,1,15,1,17,1,19,1,21,1;                       3P      2
510,81,1,1,23;                                                         5P      3
510,83,1,1,25;                                                         7P      4
510,85,1,1,27;                                                         9P      5
510,87,1,1,29;                                                        11P      6
510,89,2,1,31,33;                                                     13P      7
510,91,1,1,35;                                                        15P      8
510,93,1,1,37;                                                        17P      9
510,95,1,1,39;                                                        19P     10
510,97,2,1,41,43;                                                     21P     11
508,4,0,101,1,0,0,0,101,2,1,0,0,101,3,1,0,0,101,2,0,0;                23P     12
508,1,0,101,3,0,0;                                                    25P     13
508,4,0,101,4,0,0,0,101,5,1,0,0,101,6,1,0,0,101,5,0,0;                27P     14
508,1,0,101,6,0,0;                                                    29P     15
508,2,0,101,7,0,0,0,101,8,0,0;                                        31P     16
508,1,0,101,1,1,0;                                                    33P     17
508,6,0,101,9,0,0,0,101,10,0,0,0,101,11,1,0,0,101,8,1,0,0,101,7,      35P     18
1,0,0,101,11,0,0;                                                     35P     19
508,7,0,101,12,0,0,0,101,13,0,0,0,101,14,0,0,0,101,15,1,0,0,101,      37P     20
10,1,0,0,101,9,1,0,0,101,15,0,0;                                      37P     21
508,7,0,101,16,0,0,0,101,17,0,0,0,101,18,1,0,0,101,13,1,0,0,101,      39P     22
12,1,0,0,101,14,1,0,0,101,18,0,0;                                     39P     23
508,2,0,101,16,1,0,0,101,17,1,0;                                      41P     24
508,1,0,101,4,1,0;                                                    43P     25
126,8,2,0,1,0,0,-3.14159265358979,-3.14159265358979,                  45P     26
-3.14159265358979,-1.5707963267949,-1.5707963267949,0.,0.,            45P     27
1.5707963267949,1.5707963267949,3.14159265358979,                     45P     28
3.14159265358979,3.14159265358979,1.,0.707106781186548,1.,            45P     29
0.707106781186548,1.,0.707106781186548,1.,0.707106781186548,1.,       45P     30
14.,0.,-1.71450551880629D-15,14.,0.,-14.,-8.57252759403147D-16,       45P     31
0.,-14.,-14.,0.,-14.,-14.,0.,0.,-14.,0.,14.,                          45P     32
-8.57252759403147D-16,0.,14.,14.,0.,14.,14.,0.,                       45P     33
1.71450551880629D-15,-3.14159265358979,3.14159265358979,0.,0.,        45P     34
0.;                                                                   45P     35
126,1,1,0,0,1,0,0.,0.,2.14285714285714,2.14285714285714,1.,1.,        47P     36
14.,0.,0.,14.,30.,0.,0.,2.14285714285714,0.,0.,0.;                    47P     37
126,8,2,0,1,0,0,-3.14159265358979,-3.14159265358979,                  49P     38
-3.14159265358979,-1.5707963267949,-1.5707963267949,0.,0.,            49P     39
1.5707963267949,1.5707963267949,3.14159265358979,                     49P     40
3.14159265358979,3.14159265358979,1.,0.707106781186548,1.,            49P     41
0.707106781186548,1.,0.707106781186548,1.,0.707106781186548,1.,       49P     42
14.,30.,-1.71450551880629D-15,14.,30.,-14.,                           49P     43
-8.57252759403147D-16,30.,-14.,-14.,30.,-14.,-14.,30.,0.,-14.,        49P     44
30.,14.,-8.57252759403147D-16,30.,14.,14.,30.,14.,14.,30.,            49P     45
1.71450551880629D-15,-3.14159265358979,3.14159265358979,0.,0.,        49P     46
0.;                                                                   49P     47
126,8,2,0,1,0,0,-3.14159265358979,-3.14159265358979,                  51P     48
-3.14159265358979,-1.5707963267949,-1.5707963267949,0.,0.,            51P     49
1.5707963267949,1.5707963267949,3.14159265358979,                     51P     50
3.14159265358979,3.14159265358979,1.,0.707106781186548,1.,            51P     51
0.707106781186548,1.,0.707106781186548,1.,0.707106781186548,1.,       51P     52
8.,35.,9.79717439317883D-16,8.,35.,8.,-4.89858719658941D-16,35.,      51P     53
8.,-8.,35.,8.,-8.,35.,0.,-8.,35.,-8.,-4.89858719658941D-16,35.,       51P     54
-8.,8.,35.,-8.,8.,35.,-9.79717439317883D-16,-3.14159265358979,        51P     55
3.14159265358979,0.,0.,0.;                                            51P     56
126,1,1,0,0,1,0,0.,0.,0.25,0.25,1.,1.,8.,35.,0.,8.,33.,0.,0.,         53P     57
0.25,0.,0.,0.;                                                        53P     58
126,8,2,0,1,0,0,-3.14159265358979,-3.14159265358979,                  55P     59
-3.14159265358979,-1.5707963267949,-1.5707963267949,0.,0.,            55P     60
1.5707963267949,1.5707963267949,3.14159265358979,                     55P     61
3.14159265358979,3.14159265358979,1.,0.707106781186548,1.,            55P     62
0.707106781186548,1.,0.707106781186548,1.,0.707106781186548,1.,       55P     63
8.,33.,9.79717439317883D-16,8.,33.,8.,-4.89858719658941D-16,33.,      55P     64
8.,-8.,33.,8.,-8.,33.,0.,-8.,33.,-8.,-4.89858719658941D-16,33.,       55P     65
-8.,8.,33.,-8.,8.,33.,-9.79717439317883D-16,-3.14159265358979,        55P     66
3.14159265358979,0.,0.,0.;                                            55P     67
126,4,2,0,0,0,0,-3.14159265358979,-3.14159265358979,                  57P     68
-3.14159265358979,-1.5707963267949,-1.5707963267949,0.,0.,0.,1.,      57P     69
0.707106781186548,1.,0.707106781186548,1.,-15.5,0.,                   57P     70
1.8982025386784D-15,-15.5,0.,15.5,9.49101269339199D-16,0.,15.5,       57P     71
15.5,0.,15.5,15.5,0.,0.,-3.14159265358979,0.,0.,0.,0.;                57P     72
126,4,2,0,0,0,0,0.,0.,0.,1.5707963267949,1.5707963267949,             59P     73
3.14159265358979,3.14159265358979,3.14159265358979,1.,                59P     74
0.707106781186548,1.,0.707106781186548,1.,15.5,0.,0.,15.5,0.,         59P     75
-15.5,9.49101269339199D-16,0.,-15.5,-15.5,0.,-15.5,-15.5,0.,          59P     76
-1.8982025386784D-15,0.,3.14159265358979,0.,0.,0.;                    59P     77
126,4,2,0,0,0,0,-3.14159265358979,-3.14159265358979,                  61P     78
-3.14159265358979,-1.5707963267949,-1.5707963267949,0.,0.,0.,1.,      61P     79
0.707106781186547,1.,0.707106781186548,1.,-15.5,20.5,                 61P     80
1.8982025386784D-15,-15.5,20.5,15.5,9.49101269339199D-16,20.5,        61P     81
15.5,15.5,20.5,15.5,15.5,20.5,0.,-3.14159265358979,0.,0.,0.,0.;       61P     82
126,4,2,0,0,0,0,0.,0.,0.,1.5707963267949,1.5707963267949,             63P     83
3.14159265358979,3.14159265358979,3.14159265358979,1.,                63P     84
0.707106781186548,1.,0.707106781186547,1.,15.5,20.5,0.,15.5,          63P     85
20.5,-15.5,9.49101269339199D-16,20.5,-15.5,-15.5,20.5,-15.5,          63P     86
-15.5,20.5,-1.8982025386784D-15,0.,3.14159265358979,0.,0.,0.;         63P     87
126,1,1,0,0,1,0,-0.661290322580645,-0.661290322580645,                65P     88
0.661290322580645,0.661290322580645,1.,1.,15.5,20.5,0.,15.5,0.,       65P     89
0.,-0.661290322580645,0.661290322580645,0.,0.,0.;                     65P     90
126,4,2,0,0,0,0,-3.14159265358979,-3.14159265358979,                  67P     91
-3.14159265358979,-1.5707963267949,-1.5707963267949,0.,0.,0.,1.,      67P     92
0.707106781186548,1.,0.707106781186548,1.,-17.,29.,                   67P     93
2.0818995585505D-15,-17.,29.,17.,1.04094977927525D-15,29.,17.,        67P     94
17.,29.,17.,17.,29.,0.,-3.14159265358979,0.,0.,0.,0.;                 67P     95
126,2,2,0,0,0,0,1.5707963267949,1.5707963267949,1.5707963267949,      69P     96
3.14159265358979,3.14159265358979,3.14159265358979,1.,                69P     97
0.707106781186548,1.,1.04094977927525D-15,29.,-17.,-17.,29.,          69P     98
-17.,-17.,29.,-2.0818995585505D-15,1.5707963267949,                   69P     99
3.14159265358979,0.,0.,0.;                                            69P    100
126,2,2,0,0,0,0,0.,0.,0.,1.5707963267949,1.5707963267949,             71P    101
1.5707963267949,1.,0.707106781186548,1.,17.,29.,0.,17.,29.,-17.,      71P    102
1.04094977927525D-15,29.,-17.,0.,1.5707963267949,0.,0.,0.;            71P    103
126,1,1,0,0,1,0,-0.265579638486647,-0.265579638486647,                73P    104
0.265579638486647,0.265579638486647,1.,1.,17.,29.,0.,15.5,20.5,       73P    105
0.,-0.265579638486647,0.265579638486647,0.,0.,0.;                     73P    106
126,6,2,0,0,0,0,-3.14159265358979,-3.14159265358979,                  75P    107
-3.14159265358979,-1.5707963267949,-1.5707963267949,0.,0.,            75P    108
1.5707963267949,1.5707963267949,1.5707963267949,1.,                   75P    109
0.707106781186548,1.,0.707106781186548,1.,0.707106781186548,1.,       75P    110
-11.,35.,1.34711147906209D-15,-11.,35.,11.,6.73555739531044D-16,      75P    111
35.,11.,11.,35.,11.,11.,35.,0.,11.,35.,-11.,                          75P    112
6.73555739531044D-16,35.,-11.,-3.14159265358979,1.5707963267949,      75P    113
0.,0.,0.;                                                             75P    114
126,2,2,0,0,0,0,1.5707963267949,1.5707963267949,1.5707963267949,      77P    115
3.14159265358979,3.14159265358979,3.14159265358979,1.,                77P    116
0.707106781186548,1.,6.73555739531044D-16,35.,-11.,-11.,35.,          77P    117
-11.,-11.,35.,-1.34711147906209D-15,1.5707963267949,                  77P    118
3.14159265358979,0.,0.,0.;                                            77P    119
126,2,2,0,0,0,0,-1.5707963267949,-1.5707963267949,                    79P    120
-1.5707963267949,0.,0.,0.,1.,0.707106781186548,1.,0.,35.,-11.,        79P    121
0.,35.,-17.,0.,29.,-17.,-1.5707963267949,0.,0.,0.,0.;                 79P    122
128,1,8,1,2,0,1,0,0,1,0.,0.,2.14285714285714,2.14285714285714,        81P    123
-3.14159265358979,-3.14159265358979,-3.14159265358979,                81P    124
-1.5707963267949,-1.5707963267949,0.,0.,1.5707963267949,              81P    125
1.5707963267949,3.14159265358979,3.14159265358979,                    81P    126
3.14159265358979,1.,1.,0.707106781186548,0.707106781186548,1.,        81P    127
1.,0.707106781186548,0.707106781186548,1.,1.,0.707106781186548,       81P    128
0.707106781186548,1.,1.,0.707106781186548,0.707106781186548,1.,       81P    129
1.,14.,0.,0.,14.,30.,0.,14.,0.,-14.,14.,30.,-14.,0.,0.,-14.,0.,       81P    130
30.,-14.,-14.,0.,-14.,-14.,30.,-14.,-14.,0.,0.,-14.,30.,0.,-14.,      81P    131
0.,14.,-14.,30.,14.,0.,0.,14.,0.,30.,14.,14.,0.,14.,14.,30.,14.,      81P    132
14.,0.,0.,14.,30.,0.,0.,2.14285714285714,-3.14159265358979,           81P    133
3.14159265358979;                                                     81P    134
128,1,1,1,1,0,0,1,0,0,-1.401,-1.401,1.401,1.401,-1.401,-1.401,        83P    135
1.401,1.401,1.,1.,1.,1.,-14.01,30.,14.01,-14.01,30.,-14.01,           83P    136
14.01,30.,14.01,14.01,30.,-14.01,-1.401,1.401,-1.401,1.401;           83P    137
128,1,8,1,2,0,1,0,0,1,0.,0.,0.25,0.25,-3.14159265358979,              85P    138
-3.14159265358979,-3.14159265358979,-1.5707963267949,                 85P    139
-1.5707963267949,0.,0.,1.5707963267949,1.5707963267949,               85P    140
3.14159265358979,3.14159265358979,3.14159265358979,1.,1.,             85P    141
0.707106781186548,0.707106781186548,1.,1.,0.707106781186548,          85P    142
0.707106781186548,1.,1.,0.707106781186548,0.707106781186548,1.,       85P    143
1.,0.707106781186548,0.707106781186548,1.,1.,8.,35.,0.,8.,33.,        85P    144
0.,8.,35.,8.,8.,33.,8.,0.,35.,8.,0.,33.,8.,-8.,35.,8.,-8.,33.,        85P    145
8.,-8.,35.,0.,-8.,33.,0.,-8.,35.,-8.,-8.,33.,-8.,0.,35.,-8.,0.,       85P    146
33.,-8.,8.,35.,-8.,8.,33.,-8.,8.,35.,0.,8.,33.,0.,0.,0.25,            85P    147
-3.14159265358979,3.14159265358979;                                   85P    148
128,1,1,1,1,0,0,1,0,0,-0.801,-0.801,0.801,0.801,-0.801,-0.801,        87P    149
0.801,0.801,1.,1.,1.,1.,-8.01,33.,-8.01,-8.01,33.,8.01,8.01,33.,      87P    150
-8.01,8.01,33.,8.01,-0.801,0.801,-0.801,0.801;                        87P    151
128,1,1,1,1,0,0,1,0,0,-1.551,-1.551,1.551,1.551,-0.001,-0.001,        89P    152
3.101,3.101,1.,1.,1.,1.,-15.51,0.,15.51,-15.51,0.,-15.51,15.51,       89P    153
0.,15.51,15.51,0.,-15.51,-1.551,1.551,-0.001,3.101;                   89P    154
128,1,8,1,2,0,1,0,0,1,-0.661290322580645,-0.661290322580645,          91P    155
0.661290322580645,0.661290322580645,-3.14159265358979,                91P    156
-3.14159265358979,-3.14159265358979,-1.5707963267949,                 91P    157
-1.5707963267949,0.,0.,1.5707963267949,1.5707963267949,               91P    158
3.14159265358979,3.14159265358979,3.14159265358979,1.,1.,             91P    159
0.707106781186548,0.707106781186548,1.,1.,0.707106781186548,          91P    160
0.707106781186548,1.,1.,0.707106781186548,0.707106781186548,1.,       91P    161
1.,0.707106781186548,0.707106781186548,1.,1.,15.5,20.5,0.,15.5,       91P    162
0.,0.,15.5,20.5,-15.5,15.5,0.,-15.5,0.,20.5,-15.5,0.,0.,-15.5,        91P    163
-15.5,20.5,-15.5,-15.5,0.,-15.5,-15.5,20.5,0.,-15.5,0.,0.,-15.5,      91P    164
20.5,15.5,-15.5,0.,15.5,0.,20.5,15.5,0.,0.,15.5,15.5,20.5,15.5,       91P    165
15.5,0.,15.5,15.5,20.5,0.,15.5,0.,0.,-0.661290322580645,              91P    166
0.661290322580645,-3.14159265358979,3.14159265358979;                 91P    167
128,1,8,1,2,0,1,0,0,1,-0.265579638486647,-0.265579638486647,          93P    168
0.265579638486647,0.265579638486647,-3.14159265358979,                93P    169
-3.14159265358979,-3.14159265358979,-1.5707963267949,                 93P    170
-1.5707963267949,0.,0.,1.5707963267949,1.5707963267949,               93P    171
3.14159265358979,3.14159265358979,3.14159265358979,1.,1.,             93P    172
0.707106781186548,0.707106781186548,1.,1.,0.707106781186548,          93P    173
0.707106781186548,1.,1.,0.707106781186548,0.707106781186548,1.,       93P    174
1.,0.707106781186548,0.707106781186548,1.,1.,17.,29.,0.,15.5,         93P    175
20.5,0.,17.,29.,-17.,15.5,20.5,-15.5,0.,29.,-17.,0.,20.5,-15.5,       93P    176
-17.,29.,-17.,-15.5,20.5,-15.5,-17.,29.,0.,-15.5,20.5,0.,-17.,        93P    177
29.,17.,-15.5,20.5,15.5,0.,29.,17.,0.,20.5,15.5,17.,29.,17.,          93P    178
15.5,20.5,15.5,17.,29.,0.,15.5,20.5,0.,-0.265579638486647,            93P    179
0.265579638486647,-3.14159265358979,3.14159265358979;                 93P    180
128,2,8,2,2,0,1,0,0,1,0.,0.,0.,1.5707963267949,1.5707963267949,       95P    181
1.5707963267949,-3.14159265358979,-3.14159265358979,                  95P    182
-3.14159265358979,-1.5707963267949,-1.5707963267949,0.,0.,            95P    183
1.5707963267949,1.5707963267949,3.14159265358979,                     95P    184
3.14159265358979,3.14159265358979,1.,0.707106781186548,1.,            95P    185
0.707106781186548,0.5,0.707106781186548,1.,0.707106781186548,1.,      95P    186
0.707106781186548,0.5,0.707106781186548,1.,0.707106781186548,1.,      95P    187
0.707106781186548,0.5,0.707106781186548,1.,0.707106781186548,1.,      95P    188
0.707106781186548,0.5,0.707106781186548,1.,0.707106781186548,1.,      95P    189
0.,35.,-11.,0.,35.,-17.,0.,29.,-17.,-11.,35.,-11.,-17.,35.,-17.,      95P    190
-17.,29.,-17.,-11.,35.,0.,-17.,35.,0.,-17.,29.,0.,-11.,35.,11.,       95P    191
-17.,35.,17.,-17.,29.,17.,0.,35.,11.,0.,35.,17.,0.,29.,17.,11.,       95P    192
35.,11.,17.,35.,17.,17.,29.,17.,11.,35.,0.,17.,35.,0.,17.,29.,        95P    193
0.,11.,35.,-11.,17.,35.,-17.,17.,29.,-17.,0.,35.,-11.,0.,35.,         95P    194
-17.,0.,29.,-17.,0.,1.5707963267949,-3.14159265358979,                95P    195
3.14159265358979;                                                     95P    196
128,1,1,1,1,0,0,1,0,0,-1.101,-1.101,1.101,1.101,-1.101,-1.101,        97P    197
1.101,1.101,1.,1.,1.,1.,-11.01,35.,-11.01,-11.01,35.,11.01,           97P    198
11.01,35.,-11.01,11.01,35.,11.01,-1.101,1.101,-1.101,1.101;           97P    199
502,13,14.,0.,1.71450551880629D-15,14.,30.,1.71450551880629D-15,      99P    200
8.,35.,-9.79717439317883D-16,8.,33.,-9.79717439317883D-16,-15.5,      99P    201
0.,0.,15.5,0.,0.,-15.5,20.5,0.,15.5,20.5,0.,-17.,29.,0.,17.,29.,      99P    202
0.,0.,29.,-17.,-11.,35.,0.,0.,35.,-11.;                               99P    203
504,18,45,99,1,99,1,47,99,1,99,2,49,99,2,99,2,51,99,3,99,3,53,       101P    204
99,3,99,4,55,99,4,99,4,57,99,5,99,6,59,99,6,99,5,61,99,7,99,8,       101P    205
63,99,8,99,7,65,99,8,99,6,67,99,9,99,10,69,99,11,99,9,71,99,10,      101P    206
99,11,73,99,10,99,8,75,99,12,99,13,77,99,13,99,12,79,99,13,99,       101P    207
11;                                                                  101P    208
406,1,8HTěleso2;                                                    103P    209
314,25.8823529411765,25.8823529411765,25.8823529411765,;             105P    210
S      1G      3D    106P    210                                        T      1
