ISO-10303-21;
HEADER;
/* Generated by software containing ST-Developer
 * from STEP Tools, Inc. (www.steptools.com) 
 */

FILE_DESCRIPTION(
/* description */ (''),
/* implementation_level */ '2;1');

FILE_NAME(
/* name */ 
'D:\\VaultPracovni\\Zak\X\E1zky\\P\X2\015900ED\X0\slu\X2\0161\X0\enstv
\X\ED k profil\X2\016F\X0\m\\Trubkov\X\FD syst\X\E9m\\Novinky 28.5.202
0\\350029_Uchycen\X\ED desky, roh\\350029.stp',
/* time_stamp */ '2020-12-11T14:19:05+01:00',
/* author */ ('Spacek'),
/* organization */ ('Alutec K&K'),
/* preprocessor_version */ 'ST-DEVELOPER v18.1',
/* originating_system */ 'Autodesk Inventor 2021',
/* authorisation */ '');

FILE_SCHEMA (('AUTOMOTIVE_DESIGN { 1 0 10303 214 3 1 1 }'));
ENDSEC;

DATA;
#10=MECHANICAL_DESIGN_GEOMETRIC_PRESENTATION_REPRESENTATION('',(#13),#524);
#11=SHAPE_REPRESENTATION_RELATIONSHIP('SRR','None',#531,#12);
#12=ADVANCED_BREP_SHAPE_REPRESENTATION('',(#14),#523);
#13=STYLED_ITEM('',(#540),#14);
#14=MANIFOLD_SOLID_BREP('T\X2\011B\X0\leso2',#305);
#15=CYLINDRICAL_SURFACE('',#332,16.05);
#16=CYLINDRICAL_SURFACE('',#343,16.05);
#17=CYLINDRICAL_SURFACE('',#345,3.);
#18=CYLINDRICAL_SURFACE('',#347,13.85);
#19=CYLINDRICAL_SURFACE('',#350,13.85);
#20=FACE_BOUND('',#51,.T.);
#21=FACE_BOUND('',#59,.T.);
#22=CIRCLE('',#327,13.85);
#23=CIRCLE('',#328,16.05);
#24=CIRCLE('',#330,3.);
#25=CIRCLE('',#333,16.05);
#26=CIRCLE('',#335,16.05);
#27=CIRCLE('',#336,13.85);
#28=CIRCLE('',#339,13.85);
#29=CIRCLE('',#342,3.);
#30=CIRCLE('',#344,16.05);
#31=CIRCLE('',#348,13.85);
#32=FACE_OUTER_BOUND('',#48,.T.);
#33=FACE_OUTER_BOUND('',#49,.T.);
#34=FACE_OUTER_BOUND('',#50,.T.);
#35=FACE_OUTER_BOUND('',#52,.T.);
#36=FACE_OUTER_BOUND('',#53,.T.);
#37=FACE_OUTER_BOUND('',#54,.T.);
#38=FACE_OUTER_BOUND('',#55,.T.);
#39=FACE_OUTER_BOUND('',#56,.T.);
#40=FACE_OUTER_BOUND('',#57,.T.);
#41=FACE_OUTER_BOUND('',#58,.T.);
#42=FACE_OUTER_BOUND('',#60,.T.);
#43=FACE_OUTER_BOUND('',#61,.T.);
#44=FACE_OUTER_BOUND('',#62,.T.);
#45=FACE_OUTER_BOUND('',#63,.T.);
#46=FACE_OUTER_BOUND('',#64,.T.);
#47=FACE_OUTER_BOUND('',#65,.T.);
#48=EDGE_LOOP('',(#196,#197,#198,#199));
#49=EDGE_LOOP('',(#200,#201,#202,#203,#204,#205));
#50=EDGE_LOOP('',(#206,#207,#208,#209,#210,#211,#212,#213));
#51=EDGE_LOOP('',(#214));
#52=EDGE_LOOP('',(#215,#216,#217,#218));
#53=EDGE_LOOP('',(#219,#220,#221,#222));
#54=EDGE_LOOP('',(#223,#224,#225,#226,#227,#228,#229));
#55=EDGE_LOOP('',(#230,#231,#232,#233));
#56=EDGE_LOOP('',(#234,#235,#236,#237,#238,#239));
#57=EDGE_LOOP('',(#240,#241,#242,#243,#244));
#58=EDGE_LOOP('',(#245,#246,#247,#248,#249,#250,#251));
#59=EDGE_LOOP('',(#252));
#60=EDGE_LOOP('',(#253,#254,#255,#256));
#61=EDGE_LOOP('',(#257,#258,#259,#260));
#62=EDGE_LOOP('',(#261,#262,#263,#264));
#63=EDGE_LOOP('',(#265,#266,#267,#268));
#64=EDGE_LOOP('',(#269,#270,#271,#272,#273));
#65=EDGE_LOOP('',(#274,#275,#276,#277));
#66=LINE('',#440,#97);
#67=LINE('',#442,#98);
#68=LINE('',#444,#99);
#69=LINE('',#445,#100);
#70=LINE('',#450,#101);
#71=LINE('',#452,#102);
#72=LINE('',#454,#103);
#73=LINE('',#459,#104);
#74=LINE('',#461,#105);
#75=LINE('',#463,#106);
#76=LINE('',#464,#107);
#77=LINE('',#466,#108);
#78=LINE('',#468,#109);
#79=LINE('',#469,#110);
#80=LINE('',#475,#111);
#81=LINE('',#477,#112);
#82=LINE('',#479,#113);
#83=LINE('',#480,#114);
#84=LINE('',#483,#115);
#85=LINE('',#489,#116);
#86=LINE('',#492,#117);
#87=LINE('',#493,#118);
#88=LINE('',#496,#119);
#89=LINE('',#497,#120);
#90=LINE('',#500,#121);
#91=LINE('',#502,#122);
#92=LINE('',#503,#123);
#93=LINE('',#510,#124);
#94=LINE('',#512,#125);
#95=LINE('',#515,#126);
#96=LINE('',#516,#127);
#97=VECTOR('',#355,1.);
#98=VECTOR('',#356,1.);
#99=VECTOR('',#357,1.);
#100=VECTOR('',#358,1.);
#101=VECTOR('',#363,1.);
#102=VECTOR('',#364,1.);
#103=VECTOR('',#365,1.);
#104=VECTOR('',#370,1.);
#105=VECTOR('',#371,1.);
#106=VECTOR('',#372,1.);
#107=VECTOR('',#373,1.);
#108=VECTOR('',#374,1.);
#109=VECTOR('',#375,1.);
#110=VECTOR('',#376,1.);
#111=VECTOR('',#381,1.);
#112=VECTOR('',#382,1.);
#113=VECTOR('',#383,1.);
#114=VECTOR('',#384,1.);
#115=VECTOR('',#387,1.);
#116=VECTOR('',#394,1.);
#117=VECTOR('',#397,1.);
#118=VECTOR('',#398,1.);
#119=VECTOR('',#401,1.);
#120=VECTOR('',#402,1.);
#121=VECTOR('',#407,1.);
#122=VECTOR('',#410,1.);
#123=VECTOR('',#411,1.);
#124=VECTOR('',#420,1.);
#125=VECTOR('',#423,3.);
#126=VECTOR('',#426,1.);
#127=VECTOR('',#427,1.);
#128=VERTEX_POINT('',#438);
#129=VERTEX_POINT('',#439);
#130=VERTEX_POINT('',#441);
#131=VERTEX_POINT('',#443);
#132=VERTEX_POINT('',#447);
#133=VERTEX_POINT('',#449);
#134=VERTEX_POINT('',#451);
#135=VERTEX_POINT('',#453);
#136=VERTEX_POINT('',#457);
#137=VERTEX_POINT('',#458);
#138=VERTEX_POINT('',#460);
#139=VERTEX_POINT('',#462);
#140=VERTEX_POINT('',#465);
#141=VERTEX_POINT('',#467);
#142=VERTEX_POINT('',#470);
#143=VERTEX_POINT('',#473);
#144=VERTEX_POINT('',#474);
#145=VERTEX_POINT('',#476);
#146=VERTEX_POINT('',#478);
#147=VERTEX_POINT('',#482);
#148=VERTEX_POINT('',#486);
#149=VERTEX_POINT('',#488);
#150=VERTEX_POINT('',#491);
#151=VERTEX_POINT('',#495);
#152=VERTEX_POINT('',#505);
#153=VERTEX_POINT('',#508);
#154=VERTEX_POINT('',#514);
#155=EDGE_CURVE('',#128,#129,#66,.T.);
#156=EDGE_CURVE('',#130,#128,#67,.T.);
#157=EDGE_CURVE('',#130,#131,#68,.T.);
#158=EDGE_CURVE('',#131,#129,#69,.T.);
#159=EDGE_CURVE('',#130,#132,#22,.T.);
#160=EDGE_CURVE('',#132,#133,#70,.T.);
#161=EDGE_CURVE('',#134,#133,#71,.T.);
#162=EDGE_CURVE('',#134,#135,#72,.T.);
#163=EDGE_CURVE('',#131,#135,#23,.T.);
#164=EDGE_CURVE('',#136,#137,#73,.T.);
#165=EDGE_CURVE('',#137,#138,#74,.T.);
#166=EDGE_CURVE('',#138,#139,#75,.T.);
#167=EDGE_CURVE('',#139,#133,#76,.T.);
#168=EDGE_CURVE('',#132,#140,#77,.T.);
#169=EDGE_CURVE('',#140,#141,#78,.T.);
#170=EDGE_CURVE('',#141,#136,#79,.T.);
#171=EDGE_CURVE('',#142,#142,#24,.T.);
#172=EDGE_CURVE('',#143,#144,#80,.T.);
#173=EDGE_CURVE('',#144,#145,#81,.F.);
#174=EDGE_CURVE('',#146,#145,#82,.T.);
#175=EDGE_CURVE('',#146,#143,#83,.T.);
#176=EDGE_CURVE('',#135,#147,#84,.T.);
#177=EDGE_CURVE('',#129,#147,#25,.T.);
#178=EDGE_CURVE('',#145,#148,#26,.T.);
#179=EDGE_CURVE('',#149,#148,#85,.T.);
#180=EDGE_CURVE('',#137,#149,#27,.T.);
#181=EDGE_CURVE('',#150,#136,#86,.T.);
#182=EDGE_CURVE('',#150,#146,#87,.T.);
#183=EDGE_CURVE('',#151,#141,#88,.T.);
#184=EDGE_CURVE('',#151,#150,#89,.T.);
#185=EDGE_CURVE('',#128,#140,#28,.T.);
#186=EDGE_CURVE('',#147,#151,#90,.T.);
#187=EDGE_CURVE('',#144,#139,#91,.T.);
#188=EDGE_CURVE('',#143,#134,#92,.T.);
#189=EDGE_CURVE('',#152,#152,#29,.T.);
#190=EDGE_CURVE('',#144,#153,#30,.T.);
#191=EDGE_CURVE('',#148,#153,#93,.T.);
#192=EDGE_CURVE('',#152,#142,#94,.T.);
#193=EDGE_CURVE('',#154,#153,#95,.T.);
#194=EDGE_CURVE('',#149,#154,#96,.T.);
#195=EDGE_CURVE('',#138,#154,#31,.T.);
#196=ORIENTED_EDGE('',*,*,#155,.F.);
#197=ORIENTED_EDGE('',*,*,#156,.F.);
#198=ORIENTED_EDGE('',*,*,#157,.T.);
#199=ORIENTED_EDGE('',*,*,#158,.T.);
#200=ORIENTED_EDGE('',*,*,#159,.T.);
#201=ORIENTED_EDGE('',*,*,#160,.T.);
#202=ORIENTED_EDGE('',*,*,#161,.F.);
#203=ORIENTED_EDGE('',*,*,#162,.T.);
#204=ORIENTED_EDGE('',*,*,#163,.F.);
#205=ORIENTED_EDGE('',*,*,#157,.F.);
#206=ORIENTED_EDGE('',*,*,#164,.T.);
#207=ORIENTED_EDGE('',*,*,#165,.T.);
#208=ORIENTED_EDGE('',*,*,#166,.T.);
#209=ORIENTED_EDGE('',*,*,#167,.T.);
#210=ORIENTED_EDGE('',*,*,#160,.F.);
#211=ORIENTED_EDGE('',*,*,#168,.T.);
#212=ORIENTED_EDGE('',*,*,#169,.T.);
#213=ORIENTED_EDGE('',*,*,#170,.T.);
#214=ORIENTED_EDGE('',*,*,#171,.F.);
#215=ORIENTED_EDGE('',*,*,#172,.T.);
#216=ORIENTED_EDGE('',*,*,#173,.T.);
#217=ORIENTED_EDGE('',*,*,#174,.F.);
#218=ORIENTED_EDGE('',*,*,#175,.T.);
#219=ORIENTED_EDGE('',*,*,#163,.T.);
#220=ORIENTED_EDGE('',*,*,#176,.T.);
#221=ORIENTED_EDGE('',*,*,#177,.F.);
#222=ORIENTED_EDGE('',*,*,#158,.F.);
#223=ORIENTED_EDGE('',*,*,#174,.T.);
#224=ORIENTED_EDGE('',*,*,#178,.T.);
#225=ORIENTED_EDGE('',*,*,#179,.F.);
#226=ORIENTED_EDGE('',*,*,#180,.F.);
#227=ORIENTED_EDGE('',*,*,#164,.F.);
#228=ORIENTED_EDGE('',*,*,#181,.F.);
#229=ORIENTED_EDGE('',*,*,#182,.T.);
#230=ORIENTED_EDGE('',*,*,#170,.F.);
#231=ORIENTED_EDGE('',*,*,#183,.F.);
#232=ORIENTED_EDGE('',*,*,#184,.T.);
#233=ORIENTED_EDGE('',*,*,#181,.T.);
#234=ORIENTED_EDGE('',*,*,#169,.F.);
#235=ORIENTED_EDGE('',*,*,#185,.F.);
#236=ORIENTED_EDGE('',*,*,#155,.T.);
#237=ORIENTED_EDGE('',*,*,#177,.T.);
#238=ORIENTED_EDGE('',*,*,#186,.T.);
#239=ORIENTED_EDGE('',*,*,#183,.T.);
#240=ORIENTED_EDGE('',*,*,#167,.F.);
#241=ORIENTED_EDGE('',*,*,#187,.F.);
#242=ORIENTED_EDGE('',*,*,#172,.F.);
#243=ORIENTED_EDGE('',*,*,#188,.T.);
#244=ORIENTED_EDGE('',*,*,#161,.T.);
#245=ORIENTED_EDGE('',*,*,#176,.F.);
#246=ORIENTED_EDGE('',*,*,#162,.F.);
#247=ORIENTED_EDGE('',*,*,#188,.F.);
#248=ORIENTED_EDGE('',*,*,#175,.F.);
#249=ORIENTED_EDGE('',*,*,#182,.F.);
#250=ORIENTED_EDGE('',*,*,#184,.F.);
#251=ORIENTED_EDGE('',*,*,#186,.F.);
#252=ORIENTED_EDGE('',*,*,#189,.T.);
#253=ORIENTED_EDGE('',*,*,#173,.F.);
#254=ORIENTED_EDGE('',*,*,#190,.T.);
#255=ORIENTED_EDGE('',*,*,#191,.F.);
#256=ORIENTED_EDGE('',*,*,#178,.F.);
#257=ORIENTED_EDGE('',*,*,#189,.F.);
#258=ORIENTED_EDGE('',*,*,#192,.T.);
#259=ORIENTED_EDGE('',*,*,#171,.T.);
#260=ORIENTED_EDGE('',*,*,#192,.F.);
#261=ORIENTED_EDGE('',*,*,#193,.F.);
#262=ORIENTED_EDGE('',*,*,#194,.F.);
#263=ORIENTED_EDGE('',*,*,#179,.T.);
#264=ORIENTED_EDGE('',*,*,#191,.T.);
#265=ORIENTED_EDGE('',*,*,#195,.F.);
#266=ORIENTED_EDGE('',*,*,#165,.F.);
#267=ORIENTED_EDGE('',*,*,#180,.T.);
#268=ORIENTED_EDGE('',*,*,#194,.T.);
#269=ORIENTED_EDGE('',*,*,#187,.T.);
#270=ORIENTED_EDGE('',*,*,#166,.F.);
#271=ORIENTED_EDGE('',*,*,#195,.T.);
#272=ORIENTED_EDGE('',*,*,#193,.T.);
#273=ORIENTED_EDGE('',*,*,#190,.F.);
#274=ORIENTED_EDGE('',*,*,#185,.T.);
#275=ORIENTED_EDGE('',*,*,#168,.F.);
#276=ORIENTED_EDGE('',*,*,#159,.F.);
#277=ORIENTED_EDGE('',*,*,#156,.T.);
#278=PLANE('',#325);
#279=PLANE('',#326);
#280=PLANE('',#329);
#281=PLANE('',#331);
#282=PLANE('',#334);
#283=PLANE('',#337);
#284=PLANE('',#338);
#285=PLANE('',#340);
#286=PLANE('',#341);
#287=PLANE('',#346);
#288=PLANE('',#349);
#289=ADVANCED_FACE('',(#32),#278,.T.);
#290=ADVANCED_FACE('',(#33),#279,.F.);
#291=ADVANCED_FACE('',(#34,#20),#280,.F.);
#292=ADVANCED_FACE('',(#35),#281,.T.);
#293=ADVANCED_FACE('',(#36),#15,.T.);
#294=ADVANCED_FACE('',(#37),#282,.T.);
#295=ADVANCED_FACE('',(#38),#283,.T.);
#296=ADVANCED_FACE('',(#39),#284,.T.);
#297=ADVANCED_FACE('',(#40),#285,.T.);
#298=ADVANCED_FACE('',(#41,#21),#286,.F.);
#299=ADVANCED_FACE('',(#42),#16,.T.);
#300=ADVANCED_FACE('',(#43),#17,.F.);
#301=ADVANCED_FACE('',(#44),#287,.T.);
#302=ADVANCED_FACE('',(#45),#18,.F.);
#303=ADVANCED_FACE('',(#46),#288,.F.);
#304=ADVANCED_FACE('',(#47),#19,.F.);
#305=CLOSED_SHELL('',(#289,#290,#291,#292,#293,#294,#295,#296,#297,#298,
#299,#300,#301,#302,#303,#304));
#306=DERIVED_UNIT_ELEMENT(#308,1.);
#307=DERIVED_UNIT_ELEMENT(#526,3.);
#308=(
MASS_UNIT()
NAMED_UNIT(*)
SI_UNIT($,.GRAM.)
);
#309=DERIVED_UNIT((#306,#307));
#310=MEASURE_REPRESENTATION_ITEM('density measure',
POSITIVE_RATIO_MEASURE(1.),#309);
#311=PROPERTY_DEFINITION_REPRESENTATION(#316,#313);
#312=PROPERTY_DEFINITION_REPRESENTATION(#317,#314);
#313=REPRESENTATION('material name',(#315),#523);
#314=REPRESENTATION('density',(#310),#523);
#315=DESCRIPTIVE_REPRESENTATION_ITEM('V\X2\0161\X0\eobecn\X\E9',
'V\X2\0161\X0\eobecn\X\E9');
#316=PROPERTY_DEFINITION('material property','material name',#533);
#317=PROPERTY_DEFINITION('material property','density of part',#533);
#318=DATE_TIME_ROLE('creation_date');
#319=APPLIED_DATE_AND_TIME_ASSIGNMENT(#320,#318,(#533));
#320=DATE_AND_TIME(#321,#322);
#321=CALENDAR_DATE(2020,2,5);
#322=LOCAL_TIME(0,0,0.,#323);
#323=COORDINATED_UNIVERSAL_TIME_OFFSET(0,0,.BEHIND.);
#324=AXIS2_PLACEMENT_3D('placement',#436,#351,#352);
#325=AXIS2_PLACEMENT_3D('',#437,#353,#354);
#326=AXIS2_PLACEMENT_3D('',#446,#359,#360);
#327=AXIS2_PLACEMENT_3D('',#448,#361,#362);
#328=AXIS2_PLACEMENT_3D('',#455,#366,#367);
#329=AXIS2_PLACEMENT_3D('',#456,#368,#369);
#330=AXIS2_PLACEMENT_3D('',#471,#377,#378);
#331=AXIS2_PLACEMENT_3D('',#472,#379,#380);
#332=AXIS2_PLACEMENT_3D('',#481,#385,#386);
#333=AXIS2_PLACEMENT_3D('',#484,#388,#389);
#334=AXIS2_PLACEMENT_3D('',#485,#390,#391);
#335=AXIS2_PLACEMENT_3D('',#487,#392,#393);
#336=AXIS2_PLACEMENT_3D('',#490,#395,#396);
#337=AXIS2_PLACEMENT_3D('',#494,#399,#400);
#338=AXIS2_PLACEMENT_3D('',#498,#403,#404);
#339=AXIS2_PLACEMENT_3D('',#499,#405,#406);
#340=AXIS2_PLACEMENT_3D('',#501,#408,#409);
#341=AXIS2_PLACEMENT_3D('',#504,#412,#413);
#342=AXIS2_PLACEMENT_3D('',#506,#414,#415);
#343=AXIS2_PLACEMENT_3D('',#507,#416,#417);
#344=AXIS2_PLACEMENT_3D('',#509,#418,#419);
#345=AXIS2_PLACEMENT_3D('',#511,#421,#422);
#346=AXIS2_PLACEMENT_3D('',#513,#424,#425);
#347=AXIS2_PLACEMENT_3D('',#517,#428,#429);
#348=AXIS2_PLACEMENT_3D('',#518,#430,#431);
#349=AXIS2_PLACEMENT_3D('',#519,#432,#433);
#350=AXIS2_PLACEMENT_3D('',#520,#434,#435);
#351=DIRECTION('axis',(0.,0.,1.));
#352=DIRECTION('refdir',(1.,0.,0.));
#353=DIRECTION('center_axis',(0.,-1.,0.));
#354=DIRECTION('ref_axis',(0.,0.,-1.));
#355=DIRECTION('',(0.,0.,-1.));
#356=DIRECTION('',(1.,0.,0.));
#357=DIRECTION('',(0.,0.,-1.));
#358=DIRECTION('',(1.,0.,0.));
#359=DIRECTION('center_axis',(1.,0.,0.));
#360=DIRECTION('ref_axis',(0.,0.,-1.));
#361=DIRECTION('center_axis',(1.,0.,0.));
#362=DIRECTION('ref_axis',(0.,0.,-1.));
#363=DIRECTION('',(0.,-1.22464679914735E-16,1.));
#364=DIRECTION('',(0.,-1.,0.));
#365=DIRECTION('',(0.,0.,-1.));
#366=DIRECTION('center_axis',(1.,0.,0.));
#367=DIRECTION('ref_axis',(0.,0.,-1.));
#368=DIRECTION('center_axis',(0.,1.,1.22464679914735E-16));
#369=DIRECTION('ref_axis',(0.,-1.22464679914735E-16,1.));
#370=DIRECTION('',(-1.,0.,0.));
#371=DIRECTION('',(0.,0.,-1.));
#372=DIRECTION('',(1.,-2.25446342570308E-16,0.));
#373=DIRECTION('',(0.707106781186547,0.,-0.707106781186547));
#374=DIRECTION('',(1.,0.,0.));
#375=DIRECTION('',(0.,-1.22464679914735E-16,1.));
#376=DIRECTION('',(-0.707106781186547,0.,0.707106781186547));
#377=DIRECTION('center_axis',(0.,-1.,0.));
#378=DIRECTION('ref_axis',(0.,0.,-1.));
#379=DIRECTION('center_axis',(-1.,0.,0.));
#380=DIRECTION('ref_axis',(0.,0.,1.));
#381=DIRECTION('',(0.,-1.,0.));
#382=DIRECTION('',(0.,0.,-1.));
#383=DIRECTION('',(0.,-1.,0.));
#384=DIRECTION('',(0.,0.,-1.));
#385=DIRECTION('center_axis',(1.,0.,0.));
#386=DIRECTION('ref_axis',(0.,0.,-1.));
#387=DIRECTION('',(1.,0.,0.));
#388=DIRECTION('center_axis',(1.,0.,0.));
#389=DIRECTION('ref_axis',(0.,0.,-1.));
#390=DIRECTION('center_axis',(0.,0.,1.));
#391=DIRECTION('ref_axis',(1.,0.,0.));
#392=DIRECTION('center_axis',(0.,0.,1.));
#393=DIRECTION('ref_axis',(1.,0.,0.));
#394=DIRECTION('',(-1.,-2.25446342570308E-16,0.));
#395=DIRECTION('center_axis',(0.,0.,1.));
#396=DIRECTION('ref_axis',(1.,0.,0.));
#397=DIRECTION('',(0.,-1.,0.));
#398=DIRECTION('',(-1.,0.,0.));
#399=DIRECTION('center_axis',(0.707106781186548,0.,0.707106781186548));
#400=DIRECTION('ref_axis',(0.707106781186548,0.,-0.707106781186548));
#401=DIRECTION('',(0.,-1.,0.));
#402=DIRECTION('',(-0.707106781186547,0.,0.707106781186547));
#403=DIRECTION('center_axis',(1.,0.,0.));
#404=DIRECTION('ref_axis',(0.,0.,-1.));
#405=DIRECTION('center_axis',(1.,0.,0.));
#406=DIRECTION('ref_axis',(0.,0.,-1.));
#407=DIRECTION('',(0.,0.,1.));
#408=DIRECTION('center_axis',(-0.707106781186548,0.,-0.707106781186548));
#409=DIRECTION('ref_axis',(-0.707106781186548,0.,0.707106781186548));
#410=DIRECTION('',(0.,-1.,0.));
#411=DIRECTION('',(0.707106781186547,0.,-0.707106781186547));
#412=DIRECTION('center_axis',(0.,-1.,0.));
#413=DIRECTION('ref_axis',(0.,0.,-1.));
#414=DIRECTION('center_axis',(0.,-1.,0.));
#415=DIRECTION('ref_axis',(0.,0.,-1.));
#416=DIRECTION('center_axis',(0.,0.,-1.));
#417=DIRECTION('ref_axis',(-1.,0.,0.));
#418=DIRECTION('center_axis',(0.,0.,1.));
#419=DIRECTION('ref_axis',(1.,0.,0.));
#420=DIRECTION('',(0.,0.,-1.));
#421=DIRECTION('center_axis',(0.,-1.,0.));
#422=DIRECTION('ref_axis',(0.,0.,-1.));
#423=DIRECTION('',(0.,-1.,0.));
#424=DIRECTION('center_axis',(2.25446342570308E-16,-1.,0.));
#425=DIRECTION('ref_axis',(1.,2.25446342570308E-16,0.));
#426=DIRECTION('',(-1.,-2.25446342570308E-16,0.));
#427=DIRECTION('',(0.,0.,-1.));
#428=DIRECTION('center_axis',(0.,0.,-1.));
#429=DIRECTION('ref_axis',(-1.,0.,0.));
#430=DIRECTION('center_axis',(0.,0.,1.));
#431=DIRECTION('ref_axis',(1.,0.,0.));
#432=DIRECTION('center_axis',(0.,0.,1.));
#433=DIRECTION('ref_axis',(1.,0.,0.));
#434=DIRECTION('center_axis',(1.,0.,0.));
#435=DIRECTION('ref_axis',(0.,0.,-1.));
#436=CARTESIAN_POINT('',(0.,0.,0.));
#437=CARTESIAN_POINT('Origin',(65.,0.,-100.451421356237));
#438=CARTESIAN_POINT('',(97.,0.,-78.85));
#439=CARTESIAN_POINT('',(97.,0.,-81.05));
#440=CARTESIAN_POINT('',(97.,0.,-100.451421356237));
#441=CARTESIAN_POINT('',(65.,0.,-78.85));
#442=CARTESIAN_POINT('',(65.,0.,-78.85));
#443=CARTESIAN_POINT('',(65.,0.,-81.05));
#444=CARTESIAN_POINT('',(65.,0.,-100.451421356237));
#445=CARTESIAN_POINT('',(65.,0.,-81.05));
#446=CARTESIAN_POINT('Origin',(65.,1.39155023302623E-15,-100.451421356237));
#447=CARTESIAN_POINT('',(65.,-3.61841379825344E-15,-51.15));
#448=CARTESIAN_POINT('Origin',(65.,0.,-65.));
#449=CARTESIAN_POINT('',(65.,-3.88783609406586E-15,-48.95));
#450=CARTESIAN_POINT('',(65.,2.41926898747965E-15,-100.451421356237));
#451=CARTESIAN_POINT('',(65.,2.,-48.95));
#452=CARTESIAN_POINT('',(65.,2.,-48.95));
#453=CARTESIAN_POINT('',(65.,2.,-49.0750981164718));
#454=CARTESIAN_POINT('',(65.,2.,-101.181421356237));
#455=CARTESIAN_POINT('Origin',(65.,0.,-65.));
#456=CARTESIAN_POINT('Origin',(65.,2.41926898747965E-15,-100.451421356237));
#457=CARTESIAN_POINT('',(19.4053390593274,0.,32.));
#458=CARTESIAN_POINT('',(13.851,-3.12243184459877E-15,32.));
#459=CARTESIAN_POINT('',(55.425,0.,32.));
#460=CARTESIAN_POINT('',(13.851,-3.12243184459877E-15,0.));
#461=CARTESIAN_POINT('',(13.851,-3.12243184459877E-15,32.));
#462=CARTESIAN_POINT('',(16.05,-3.61818835191087E-15,0.));
#463=CARTESIAN_POINT('',(0.00100000000001041,0.,0.));
#464=CARTESIAN_POINT('',(86.3282106781187,0.,-70.2782106781187));
#465=CARTESIAN_POINT('',(97.,-3.61841379825344E-15,-51.15));
#466=CARTESIAN_POINT('',(65.,-3.61841379825344E-15,-51.15));
#467=CARTESIAN_POINT('',(97.,0.,-45.5946609406726));
#468=CARTESIAN_POINT('',(97.,2.41926898747965E-15,-100.451421356237));
#469=CARTESIAN_POINT('',(104.005880207782,0.,-52.600541148455));
#470=CARTESIAN_POINT('',(49.3638347648319,0.,-12.6361652351682));
#471=CARTESIAN_POINT('Origin',(49.3638347648319,0.,-15.6361652351682));
#472=CARTESIAN_POINT('Origin',(16.05,2.,-101.181421356237));
#473=CARTESIAN_POINT('',(16.05,2.,0.));
#474=CARTESIAN_POINT('',(16.05,0.179161937921941,0.));
#475=CARTESIAN_POINT('',(16.05,2.,0.));
#476=CARTESIAN_POINT('',(16.05,0.179161937921941,32.));
#477=CARTESIAN_POINT('',(16.05,0.179161937921941,32.));
#478=CARTESIAN_POINT('',(16.05,2.,32.));
#479=CARTESIAN_POINT('',(16.05,2.,32.));
#480=CARTESIAN_POINT('',(16.05,2.,-101.181421356237));
#481=CARTESIAN_POINT('Origin',(65.,0.,-65.));
#482=CARTESIAN_POINT('',(97.,2.,-49.0750981164718));
#483=CARTESIAN_POINT('',(65.,2.,-49.0750981164718));
#484=CARTESIAN_POINT('Origin',(97.,0.,-65.));
#485=CARTESIAN_POINT('Origin',(55.425,2.,32.));
#486=CARTESIAN_POINT('',(-16.049,-3.61841379825345E-15,32.));
#487=CARTESIAN_POINT('Origin',(0.001,0.,32.));
#488=CARTESIAN_POINT('',(-13.849,-3.12243184459877E-15,32.));
#489=CARTESIAN_POINT('',(0.000999999999993061,0.,32.));
#490=CARTESIAN_POINT('Origin',(0.001,0.,32.));
#491=CARTESIAN_POINT('',(19.4053390593274,2.,32.));
#492=CARTESIAN_POINT('',(19.4053390593274,2.,32.));
#493=CARTESIAN_POINT('',(55.425,2.,32.));
#494=CARTESIAN_POINT('Origin',(104.005880207782,2.,-52.600541148455));
#495=CARTESIAN_POINT('',(97.,2.,-45.5946609406726));
#496=CARTESIAN_POINT('',(97.,2.,-45.5946609406726));
#497=CARTESIAN_POINT('',(104.005880207782,2.,-52.600541148455));
#498=CARTESIAN_POINT('Origin',(97.,1.39155023302623E-15,-100.451421356237));
#499=CARTESIAN_POINT('Origin',(97.,0.,-65.));
#500=CARTESIAN_POINT('',(97.,2.,-101.181421356237));
#501=CARTESIAN_POINT('Origin',(86.3282106781187,2.,-70.2782106781187));
#502=CARTESIAN_POINT('',(16.05,2.,0.));
#503=CARTESIAN_POINT('',(86.3282106781187,2.,-70.2782106781187));
#504=CARTESIAN_POINT('Origin',(55.425,2.,-101.181421356237));
#505=CARTESIAN_POINT('',(49.3638347648319,2.,-12.6361652351682));
#506=CARTESIAN_POINT('Origin',(49.3638347648319,2.,-15.6361652351682));
#507=CARTESIAN_POINT('Origin',(0.001,0.,32.));
#508=CARTESIAN_POINT('',(-16.049,-3.61841379825345E-15,0.));
#509=CARTESIAN_POINT('Origin',(0.001,0.,0.));
#510=CARTESIAN_POINT('',(-16.049,-3.61841379825345E-15,32.));
#511=CARTESIAN_POINT('Origin',(49.3638347648319,2.,-15.6361652351682));
#512=CARTESIAN_POINT('',(49.3638347648319,2.,-12.6361652351682));
#513=CARTESIAN_POINT('Origin',(0.000999999999993061,0.,32.));
#514=CARTESIAN_POINT('',(-13.849,-3.12243184459877E-15,0.));
#515=CARTESIAN_POINT('',(0.000999999999993061,0.,0.));
#516=CARTESIAN_POINT('',(-13.849,-3.12243184459877E-15,32.));
#517=CARTESIAN_POINT('Origin',(0.001,0.,32.));
#518=CARTESIAN_POINT('Origin',(0.001,0.,0.));
#519=CARTESIAN_POINT('Origin',(0.001,-35.4514213562373,0.));
#520=CARTESIAN_POINT('Origin',(65.,0.,-65.));
#521=UNCERTAINTY_MEASURE_WITH_UNIT(LENGTH_MEASURE(0.01),#525,
'DISTANCE_ACCURACY_VALUE',
'Maximum model space distance between geometric entities at asserted c
onnectivities');
#522=UNCERTAINTY_MEASURE_WITH_UNIT(LENGTH_MEASURE(0.01),#525,
'DISTANCE_ACCURACY_VALUE',
'Maximum model space distance between geometric entities at asserted c
onnectivities');
#523=(
GEOMETRIC_REPRESENTATION_CONTEXT(3)
GLOBAL_UNCERTAINTY_ASSIGNED_CONTEXT((#521))
GLOBAL_UNIT_ASSIGNED_CONTEXT((#525,#527,#528))
REPRESENTATION_CONTEXT('','3D')
);
#524=(
GEOMETRIC_REPRESENTATION_CONTEXT(3)
GLOBAL_UNCERTAINTY_ASSIGNED_CONTEXT((#522))
GLOBAL_UNIT_ASSIGNED_CONTEXT((#525,#527,#528))
REPRESENTATION_CONTEXT('','3D')
);
#525=(
LENGTH_UNIT()
NAMED_UNIT(*)
SI_UNIT(.MILLI.,.METRE.)
);
#526=(
LENGTH_UNIT()
NAMED_UNIT(*)
SI_UNIT(.CENTI.,.METRE.)
);
#527=(
NAMED_UNIT(*)
PLANE_ANGLE_UNIT()
SI_UNIT($,.RADIAN.)
);
#528=(
NAMED_UNIT(*)
SI_UNIT($,.STERADIAN.)
SOLID_ANGLE_UNIT()
);
#529=SHAPE_DEFINITION_REPRESENTATION(#530,#531);
#530=PRODUCT_DEFINITION_SHAPE('',$,#533);
#531=SHAPE_REPRESENTATION('',(#324),#523);
#532=PRODUCT_DEFINITION_CONTEXT('part definition',#537,'design');
#533=PRODUCT_DEFINITION('350029','350029',#534,#532);
#534=PRODUCT_DEFINITION_FORMATION('',$,#539);
#535=PRODUCT_RELATED_PRODUCT_CATEGORY('350029','350029',(#539));
#536=APPLICATION_PROTOCOL_DEFINITION('international standard',
'automotive_design',2009,#537);
#537=APPLICATION_CONTEXT(
'Core Data for Automotive Mechanical Design Process');
#538=PRODUCT_CONTEXT('part definition',#537,'mechanical');
#539=PRODUCT('350029','350029',$,(#538));
#540=PRESENTATION_STYLE_ASSIGNMENT((#541));
#541=SURFACE_STYLE_USAGE(.BOTH.,#544);
#542=SURFACE_STYLE_RENDERING_WITH_PROPERTIES($,#548,(#543));
#543=SURFACE_STYLE_TRANSPARENT(0.);
#544=SURFACE_SIDE_STYLE('',(#545,#542));
#545=SURFACE_STYLE_FILL_AREA(#546);
#546=FILL_AREA_STYLE('',(#547));
#547=FILL_AREA_STYLE_COLOUR('',#548);
#548=COLOUR_RGB('',0.749019607843137,0.749019607843137,0.749019607843137);
ENDSEC;
END-ISO-10303-21;
