ISO-10303-21;
HEADER;
/* Generated by software containing ST-Developer
 * from STEP Tools, Inc. (www.steptools.com) 
 */

FILE_DESCRIPTION(
/* description */ (''),
/* implementation_level */ '2;1');

FILE_NAME(
/* name */ 
'D:\\VaultPracovni\\Zak\X\E1zky\\P\X2\015900ED\X0\slu\X2\0161\X0\enstv
\X\ED k profil\X2\016F\X0\m\\Trubkov\X\FD syst\X\E9m\\Novinky 28.5.202
0\\700019_Ozna\X2\010D\X0\ovac\X\ED li\X2\0161\X0\ta\\700019.stp',
/* time_stamp */ '2020-12-11T11:17:10+01:00',
/* author */ ('Spacek'),
/* organization */ ('Alutec K&K'),
/* preprocessor_version */ 'ST-DEVELOPER v18.1',
/* originating_system */ 'Autodesk Inventor 2021',
/* authorisation */ '');

FILE_SCHEMA (('AUTOMOTIVE_DESIGN { 1 0 10303 214 3 1 1 }'));
ENDSEC;

DATA;
#10=MECHANICAL_DESIGN_GEOMETRIC_PRESENTATION_REPRESENTATION('',(#13),#558);
#11=SHAPE_REPRESENTATION_RELATIONSHIP('SRR','None',#565,#12);
#12=ADVANCED_BREP_SHAPE_REPRESENTATION('',(#14),#557);
#13=STYLED_ITEM('',(#575),#14);
#14=MANIFOLD_SOLID_BREP('T\X2\011B\X0\leso3',#332);
#15=CYLINDRICAL_SURFACE('',#357,14.);
#16=CYLINDRICAL_SURFACE('',#364,16.);
#17=CYLINDRICAL_SURFACE('',#370,14.);
#18=CIRCLE('',#354,14.);
#19=CIRCLE('',#355,14.);
#20=CIRCLE('',#356,16.);
#21=CIRCLE('',#358,14.);
#22=CIRCLE('',#365,16.);
#23=CIRCLE('',#371,14.);
#24=FACE_OUTER_BOUND('',#41,.T.);
#25=FACE_OUTER_BOUND('',#42,.T.);
#26=FACE_OUTER_BOUND('',#43,.T.);
#27=FACE_OUTER_BOUND('',#44,.T.);
#28=FACE_OUTER_BOUND('',#45,.T.);
#29=FACE_OUTER_BOUND('',#46,.T.);
#30=FACE_OUTER_BOUND('',#47,.T.);
#31=FACE_OUTER_BOUND('',#48,.T.);
#32=FACE_OUTER_BOUND('',#49,.T.);
#33=FACE_OUTER_BOUND('',#50,.T.);
#34=FACE_OUTER_BOUND('',#51,.T.);
#35=FACE_OUTER_BOUND('',#52,.T.);
#36=FACE_OUTER_BOUND('',#53,.T.);
#37=FACE_OUTER_BOUND('',#54,.T.);
#38=FACE_OUTER_BOUND('',#55,.T.);
#39=FACE_OUTER_BOUND('',#56,.T.);
#40=FACE_OUTER_BOUND('',#57,.T.);
#41=EDGE_LOOP('',(#211,#212,#213,#214));
#42=EDGE_LOOP('',(#215,#216,#217,#218,#219,#220,#221,#222,#223,#224,#225,
#226,#227,#228,#229));
#43=EDGE_LOOP('',(#230,#231,#232,#233));
#44=EDGE_LOOP('',(#234,#235,#236,#237));
#45=EDGE_LOOP('',(#238,#239,#240,#241));
#46=EDGE_LOOP('',(#242,#243,#244,#245));
#47=EDGE_LOOP('',(#246,#247,#248,#249));
#48=EDGE_LOOP('',(#250,#251,#252,#253));
#49=EDGE_LOOP('',(#254,#255,#256,#257));
#50=EDGE_LOOP('',(#258,#259,#260,#261));
#51=EDGE_LOOP('',(#262,#263,#264,#265));
#52=EDGE_LOOP('',(#266,#267,#268,#269));
#53=EDGE_LOOP('',(#270,#271,#272,#273));
#54=EDGE_LOOP('',(#274,#275,#276,#277));
#55=EDGE_LOOP('',(#278,#279,#280,#281));
#56=EDGE_LOOP('',(#282,#283,#284,#285));
#57=EDGE_LOOP('',(#286,#287,#288,#289,#290,#291,#292,#293,#294,#295,#296,
#297,#298,#299,#300));
#58=LINE('',#466,#97);
#59=LINE('',#468,#98);
#60=LINE('',#470,#99);
#61=LINE('',#471,#100);
#62=LINE('',#474,#101);
#63=LINE('',#478,#102);
#64=LINE('',#480,#103);
#65=LINE('',#484,#104);
#66=LINE('',#486,#105);
#67=LINE('',#488,#106);
#68=LINE('',#490,#107);
#69=LINE('',#494,#108);
#70=LINE('',#496,#109);
#71=LINE('',#498,#110);
#72=LINE('',#499,#111);
#73=LINE('',#503,#112);
#74=LINE('',#506,#113);
#75=LINE('',#507,#114);
#76=LINE('',#510,#115);
#77=LINE('',#511,#116);
#78=LINE('',#514,#117);
#79=LINE('',#515,#118);
#80=LINE('',#518,#119);
#81=LINE('',#519,#120);
#82=LINE('',#522,#121);
#83=LINE('',#523,#122);
#84=LINE('',#527,#123);
#85=LINE('',#530,#124);
#86=LINE('',#531,#125);
#87=LINE('',#534,#126);
#88=LINE('',#535,#127);
#89=LINE('',#538,#128);
#90=LINE('',#539,#129);
#91=LINE('',#542,#130);
#92=LINE('',#543,#131);
#93=LINE('',#547,#132);
#94=LINE('',#550,#133);
#95=LINE('',#551,#134);
#96=LINE('',#553,#135);
#97=VECTOR('',#379,1.);
#98=VECTOR('',#380,1.);
#99=VECTOR('',#381,1.);
#100=VECTOR('',#382,1.);
#101=VECTOR('',#385,1.);
#102=VECTOR('',#388,1.);
#103=VECTOR('',#389,1.);
#104=VECTOR('',#392,1.);
#105=VECTOR('',#393,1.);
#106=VECTOR('',#394,1.);
#107=VECTOR('',#395,1.);
#108=VECTOR('',#398,1.);
#109=VECTOR('',#399,1.);
#110=VECTOR('',#400,1.);
#111=VECTOR('',#401,1.);
#112=VECTOR('',#406,1.);
#113=VECTOR('',#409,1.);
#114=VECTOR('',#410,1.);
#115=VECTOR('',#413,1.);
#116=VECTOR('',#414,1.);
#117=VECTOR('',#417,1.);
#118=VECTOR('',#418,1.);
#119=VECTOR('',#421,1.);
#120=VECTOR('',#422,1.);
#121=VECTOR('',#425,1.);
#122=VECTOR('',#426,1.);
#123=VECTOR('',#431,1.);
#124=VECTOR('',#434,1.);
#125=VECTOR('',#435,1.);
#126=VECTOR('',#438,1.);
#127=VECTOR('',#439,1.);
#128=VECTOR('',#442,1.);
#129=VECTOR('',#443,1.);
#130=VECTOR('',#446,1.);
#131=VECTOR('',#447,1.);
#132=VECTOR('',#452,1.);
#133=VECTOR('',#455,1.);
#134=VECTOR('',#456,1.);
#135=VECTOR('',#459,1.);
#136=VERTEX_POINT('',#464);
#137=VERTEX_POINT('',#465);
#138=VERTEX_POINT('',#467);
#139=VERTEX_POINT('',#469);
#140=VERTEX_POINT('',#473);
#141=VERTEX_POINT('',#475);
#142=VERTEX_POINT('',#477);
#143=VERTEX_POINT('',#479);
#144=VERTEX_POINT('',#481);
#145=VERTEX_POINT('',#483);
#146=VERTEX_POINT('',#485);
#147=VERTEX_POINT('',#487);
#148=VERTEX_POINT('',#489);
#149=VERTEX_POINT('',#491);
#150=VERTEX_POINT('',#493);
#151=VERTEX_POINT('',#495);
#152=VERTEX_POINT('',#497);
#153=VERTEX_POINT('',#501);
#154=VERTEX_POINT('',#505);
#155=VERTEX_POINT('',#509);
#156=VERTEX_POINT('',#513);
#157=VERTEX_POINT('',#517);
#158=VERTEX_POINT('',#521);
#159=VERTEX_POINT('',#525);
#160=VERTEX_POINT('',#529);
#161=VERTEX_POINT('',#533);
#162=VERTEX_POINT('',#537);
#163=VERTEX_POINT('',#541);
#164=VERTEX_POINT('',#545);
#165=VERTEX_POINT('',#549);
#166=EDGE_CURVE('',#136,#137,#58,.T.);
#167=EDGE_CURVE('',#138,#136,#59,.T.);
#168=EDGE_CURVE('',#138,#139,#60,.T.);
#169=EDGE_CURVE('',#139,#137,#61,.T.);
#170=EDGE_CURVE('',#139,#140,#62,.T.);
#171=EDGE_CURVE('',#141,#138,#18,.T.);
#172=EDGE_CURVE('',#142,#141,#63,.T.);
#173=EDGE_CURVE('',#143,#142,#64,.T.);
#174=EDGE_CURVE('',#144,#143,#19,.T.);
#175=EDGE_CURVE('',#145,#144,#65,.T.);
#176=EDGE_CURVE('',#146,#145,#66,.T.);
#177=EDGE_CURVE('',#147,#146,#67,.T.);
#178=EDGE_CURVE('',#148,#147,#68,.T.);
#179=EDGE_CURVE('',#149,#148,#20,.T.);
#180=EDGE_CURVE('',#150,#149,#69,.T.);
#181=EDGE_CURVE('',#151,#150,#70,.T.);
#182=EDGE_CURVE('',#152,#151,#71,.T.);
#183=EDGE_CURVE('',#140,#152,#72,.T.);
#184=EDGE_CURVE('',#153,#136,#21,.T.);
#185=EDGE_CURVE('',#141,#153,#73,.T.);
#186=EDGE_CURVE('',#137,#154,#74,.T.);
#187=EDGE_CURVE('',#140,#154,#75,.T.);
#188=EDGE_CURVE('',#154,#155,#76,.T.);
#189=EDGE_CURVE('',#152,#155,#77,.T.);
#190=EDGE_CURVE('',#155,#156,#78,.T.);
#191=EDGE_CURVE('',#151,#156,#79,.T.);
#192=EDGE_CURVE('',#156,#157,#80,.T.);
#193=EDGE_CURVE('',#150,#157,#81,.T.);
#194=EDGE_CURVE('',#157,#158,#82,.T.);
#195=EDGE_CURVE('',#149,#158,#83,.T.);
#196=EDGE_CURVE('',#158,#159,#22,.T.);
#197=EDGE_CURVE('',#148,#159,#84,.T.);
#198=EDGE_CURVE('',#159,#160,#85,.T.);
#199=EDGE_CURVE('',#147,#160,#86,.T.);
#200=EDGE_CURVE('',#160,#161,#87,.T.);
#201=EDGE_CURVE('',#146,#161,#88,.T.);
#202=EDGE_CURVE('',#161,#162,#89,.T.);
#203=EDGE_CURVE('',#145,#162,#90,.T.);
#204=EDGE_CURVE('',#162,#163,#91,.T.);
#205=EDGE_CURVE('',#144,#163,#92,.T.);
#206=EDGE_CURVE('',#163,#164,#23,.T.);
#207=EDGE_CURVE('',#143,#164,#93,.T.);
#208=EDGE_CURVE('',#164,#165,#94,.T.);
#209=EDGE_CURVE('',#142,#165,#95,.T.);
#210=EDGE_CURVE('',#165,#153,#96,.T.);
#211=ORIENTED_EDGE('',*,*,#166,.F.);
#212=ORIENTED_EDGE('',*,*,#167,.F.);
#213=ORIENTED_EDGE('',*,*,#168,.T.);
#214=ORIENTED_EDGE('',*,*,#169,.T.);
#215=ORIENTED_EDGE('',*,*,#170,.F.);
#216=ORIENTED_EDGE('',*,*,#168,.F.);
#217=ORIENTED_EDGE('',*,*,#171,.F.);
#218=ORIENTED_EDGE('',*,*,#172,.F.);
#219=ORIENTED_EDGE('',*,*,#173,.F.);
#220=ORIENTED_EDGE('',*,*,#174,.F.);
#221=ORIENTED_EDGE('',*,*,#175,.F.);
#222=ORIENTED_EDGE('',*,*,#176,.F.);
#223=ORIENTED_EDGE('',*,*,#177,.F.);
#224=ORIENTED_EDGE('',*,*,#178,.F.);
#225=ORIENTED_EDGE('',*,*,#179,.F.);
#226=ORIENTED_EDGE('',*,*,#180,.F.);
#227=ORIENTED_EDGE('',*,*,#181,.F.);
#228=ORIENTED_EDGE('',*,*,#182,.F.);
#229=ORIENTED_EDGE('',*,*,#183,.F.);
#230=ORIENTED_EDGE('',*,*,#184,.F.);
#231=ORIENTED_EDGE('',*,*,#185,.F.);
#232=ORIENTED_EDGE('',*,*,#171,.T.);
#233=ORIENTED_EDGE('',*,*,#167,.T.);
#234=ORIENTED_EDGE('',*,*,#186,.F.);
#235=ORIENTED_EDGE('',*,*,#169,.F.);
#236=ORIENTED_EDGE('',*,*,#170,.T.);
#237=ORIENTED_EDGE('',*,*,#187,.T.);
#238=ORIENTED_EDGE('',*,*,#188,.F.);
#239=ORIENTED_EDGE('',*,*,#187,.F.);
#240=ORIENTED_EDGE('',*,*,#183,.T.);
#241=ORIENTED_EDGE('',*,*,#189,.T.);
#242=ORIENTED_EDGE('',*,*,#190,.F.);
#243=ORIENTED_EDGE('',*,*,#189,.F.);
#244=ORIENTED_EDGE('',*,*,#182,.T.);
#245=ORIENTED_EDGE('',*,*,#191,.T.);
#246=ORIENTED_EDGE('',*,*,#192,.F.);
#247=ORIENTED_EDGE('',*,*,#191,.F.);
#248=ORIENTED_EDGE('',*,*,#181,.T.);
#249=ORIENTED_EDGE('',*,*,#193,.T.);
#250=ORIENTED_EDGE('',*,*,#194,.F.);
#251=ORIENTED_EDGE('',*,*,#193,.F.);
#252=ORIENTED_EDGE('',*,*,#180,.T.);
#253=ORIENTED_EDGE('',*,*,#195,.T.);
#254=ORIENTED_EDGE('',*,*,#196,.F.);
#255=ORIENTED_EDGE('',*,*,#195,.F.);
#256=ORIENTED_EDGE('',*,*,#179,.T.);
#257=ORIENTED_EDGE('',*,*,#197,.T.);
#258=ORIENTED_EDGE('',*,*,#198,.F.);
#259=ORIENTED_EDGE('',*,*,#197,.F.);
#260=ORIENTED_EDGE('',*,*,#178,.T.);
#261=ORIENTED_EDGE('',*,*,#199,.T.);
#262=ORIENTED_EDGE('',*,*,#200,.F.);
#263=ORIENTED_EDGE('',*,*,#199,.F.);
#264=ORIENTED_EDGE('',*,*,#177,.T.);
#265=ORIENTED_EDGE('',*,*,#201,.T.);
#266=ORIENTED_EDGE('',*,*,#202,.F.);
#267=ORIENTED_EDGE('',*,*,#201,.F.);
#268=ORIENTED_EDGE('',*,*,#176,.T.);
#269=ORIENTED_EDGE('',*,*,#203,.T.);
#270=ORIENTED_EDGE('',*,*,#204,.F.);
#271=ORIENTED_EDGE('',*,*,#203,.F.);
#272=ORIENTED_EDGE('',*,*,#175,.T.);
#273=ORIENTED_EDGE('',*,*,#205,.T.);
#274=ORIENTED_EDGE('',*,*,#206,.F.);
#275=ORIENTED_EDGE('',*,*,#205,.F.);
#276=ORIENTED_EDGE('',*,*,#174,.T.);
#277=ORIENTED_EDGE('',*,*,#207,.T.);
#278=ORIENTED_EDGE('',*,*,#208,.F.);
#279=ORIENTED_EDGE('',*,*,#207,.F.);
#280=ORIENTED_EDGE('',*,*,#173,.T.);
#281=ORIENTED_EDGE('',*,*,#209,.T.);
#282=ORIENTED_EDGE('',*,*,#210,.F.);
#283=ORIENTED_EDGE('',*,*,#209,.F.);
#284=ORIENTED_EDGE('',*,*,#172,.T.);
#285=ORIENTED_EDGE('',*,*,#185,.T.);
#286=ORIENTED_EDGE('',*,*,#186,.T.);
#287=ORIENTED_EDGE('',*,*,#188,.T.);
#288=ORIENTED_EDGE('',*,*,#190,.T.);
#289=ORIENTED_EDGE('',*,*,#192,.T.);
#290=ORIENTED_EDGE('',*,*,#194,.T.);
#291=ORIENTED_EDGE('',*,*,#196,.T.);
#292=ORIENTED_EDGE('',*,*,#198,.T.);
#293=ORIENTED_EDGE('',*,*,#200,.T.);
#294=ORIENTED_EDGE('',*,*,#202,.T.);
#295=ORIENTED_EDGE('',*,*,#204,.T.);
#296=ORIENTED_EDGE('',*,*,#206,.T.);
#297=ORIENTED_EDGE('',*,*,#208,.T.);
#298=ORIENTED_EDGE('',*,*,#210,.T.);
#299=ORIENTED_EDGE('',*,*,#184,.T.);
#300=ORIENTED_EDGE('',*,*,#166,.T.);
#301=PLANE('',#352);
#302=PLANE('',#353);
#303=PLANE('',#359);
#304=PLANE('',#360);
#305=PLANE('',#361);
#306=PLANE('',#362);
#307=PLANE('',#363);
#308=PLANE('',#366);
#309=PLANE('',#367);
#310=PLANE('',#368);
#311=PLANE('',#369);
#312=PLANE('',#372);
#313=PLANE('',#373);
#314=PLANE('',#374);
#315=ADVANCED_FACE('',(#24),#301,.F.);
#316=ADVANCED_FACE('',(#25),#302,.T.);
#317=ADVANCED_FACE('',(#26),#15,.F.);
#318=ADVANCED_FACE('',(#27),#303,.F.);
#319=ADVANCED_FACE('',(#28),#304,.F.);
#320=ADVANCED_FACE('',(#29),#305,.F.);
#321=ADVANCED_FACE('',(#30),#306,.F.);
#322=ADVANCED_FACE('',(#31),#307,.F.);
#323=ADVANCED_FACE('',(#32),#16,.T.);
#324=ADVANCED_FACE('',(#33),#308,.F.);
#325=ADVANCED_FACE('',(#34),#309,.F.);
#326=ADVANCED_FACE('',(#35),#310,.F.);
#327=ADVANCED_FACE('',(#36),#311,.F.);
#328=ADVANCED_FACE('',(#37),#17,.F.);
#329=ADVANCED_FACE('',(#38),#312,.F.);
#330=ADVANCED_FACE('',(#39),#313,.F.);
#331=ADVANCED_FACE('',(#40),#314,.F.);
#332=CLOSED_SHELL('',(#315,#316,#317,#318,#319,#320,#321,#322,#323,#324,
#325,#326,#327,#328,#329,#330,#331));
#333=DERIVED_UNIT_ELEMENT(#335,1.);
#334=DERIVED_UNIT_ELEMENT(#560,3.);
#335=(
MASS_UNIT()
NAMED_UNIT(*)
SI_UNIT($,.GRAM.)
);
#336=DERIVED_UNIT((#333,#334));
#337=MEASURE_REPRESENTATION_ITEM('density measure',
POSITIVE_RATIO_MEASURE(1.),#336);
#338=PROPERTY_DEFINITION_REPRESENTATION(#343,#340);
#339=PROPERTY_DEFINITION_REPRESENTATION(#344,#341);
#340=REPRESENTATION('material name',(#342),#557);
#341=REPRESENTATION('density',(#337),#557);
#342=DESCRIPTIVE_REPRESENTATION_ITEM('V\X2\0161\X0\eobecn\X\E9',
'V\X2\0161\X0\eobecn\X\E9');
#343=PROPERTY_DEFINITION('material property','material name',#567);
#344=PROPERTY_DEFINITION('material property','density of part',#567);
#345=DATE_TIME_ROLE('creation_date');
#346=APPLIED_DATE_AND_TIME_ASSIGNMENT(#347,#345,(#567));
#347=DATE_AND_TIME(#348,#349);
#348=CALENDAR_DATE(2020,30,3);
#349=LOCAL_TIME(0,0,0.,#350);
#350=COORDINATED_UNIVERSAL_TIME_OFFSET(0,0,.BEHIND.);
#351=AXIS2_PLACEMENT_3D('placement',#462,#375,#376);
#352=AXIS2_PLACEMENT_3D('',#463,#377,#378);
#353=AXIS2_PLACEMENT_3D('',#472,#383,#384);
#354=AXIS2_PLACEMENT_3D('',#476,#386,#387);
#355=AXIS2_PLACEMENT_3D('',#482,#390,#391);
#356=AXIS2_PLACEMENT_3D('',#492,#396,#397);
#357=AXIS2_PLACEMENT_3D('',#500,#402,#403);
#358=AXIS2_PLACEMENT_3D('',#502,#404,#405);
#359=AXIS2_PLACEMENT_3D('',#504,#407,#408);
#360=AXIS2_PLACEMENT_3D('',#508,#411,#412);
#361=AXIS2_PLACEMENT_3D('',#512,#415,#416);
#362=AXIS2_PLACEMENT_3D('',#516,#419,#420);
#363=AXIS2_PLACEMENT_3D('',#520,#423,#424);
#364=AXIS2_PLACEMENT_3D('',#524,#427,#428);
#365=AXIS2_PLACEMENT_3D('',#526,#429,#430);
#366=AXIS2_PLACEMENT_3D('',#528,#432,#433);
#367=AXIS2_PLACEMENT_3D('',#532,#436,#437);
#368=AXIS2_PLACEMENT_3D('',#536,#440,#441);
#369=AXIS2_PLACEMENT_3D('',#540,#444,#445);
#370=AXIS2_PLACEMENT_3D('',#544,#448,#449);
#371=AXIS2_PLACEMENT_3D('',#546,#450,#451);
#372=AXIS2_PLACEMENT_3D('',#548,#453,#454);
#373=AXIS2_PLACEMENT_3D('',#552,#457,#458);
#374=AXIS2_PLACEMENT_3D('',#554,#460,#461);
#375=DIRECTION('axis',(0.,0.,1.));
#376=DIRECTION('refdir',(1.,0.,0.));
#377=DIRECTION('center_axis',(1.9314479156418E-15,-1.,1.38165618624997E-15));
#378=DIRECTION('ref_axis',(1.,1.93144791564181E-15,5.66746126184161E-15));
#379=DIRECTION('',(5.61195011061036E-15,-1.49267848871247E-15,-1.));
#380=DIRECTION('',(-1.,-1.98695906687307E-15,-5.66746126184161E-15));
#381=DIRECTION('',(5.61195011061036E-15,-1.49267848871247E-15,-1.));
#382=DIRECTION('',(-1.,-1.98695906687307E-15,-5.66746126184161E-15));
#383=DIRECTION('center_axis',(1.,1.98695906687307E-15,5.66746126184161E-15));
#384=DIRECTION('ref_axis',(-1.98695906687306E-15,1.,-1.38165618624997E-15));
#385=DIRECTION('',(5.920623052876E-15,-0.258819045102521,-0.965925826289068));
#386=DIRECTION('center_axis',(1.,1.98695906687307E-15,5.66746126184161E-15));
#387=DIRECTION('ref_axis',(1.98695906687306E-15,-1.,1.38165618624997E-15));
#388=DIRECTION('',(5.61195011061036E-15,-1.49267848871247E-15,-1.));
#389=DIRECTION('',(1.9314479156418E-15,-1.,1.38165618624997E-15));
#390=DIRECTION('center_axis',(1.,1.98695906687307E-15,5.66746126184161E-15));
#391=DIRECTION('ref_axis',(1.98695906687306E-15,-1.,1.38165618624997E-15));
#392=DIRECTION('',(-4.39865598987123E-15,0.875999785942611,0.482311491702717));
#393=DIRECTION('',(-3.89436740273865E-15,-0.499999999999982,0.866025403784449));
#394=DIRECTION('',(4.47865801633738E-15,-0.866025403784452,-0.499999999999976));
#395=DIRECTION('',(3.89436740273857E-15,0.499999999999999,-0.866025403784439));
#396=DIRECTION('center_axis',(-1.,-1.98695906687307E-15,-5.66746126184161E-15));
#397=DIRECTION('ref_axis',(-1.98695906687306E-15,1.,-1.38165618624997E-15));
#398=DIRECTION('',(-1.9314479156418E-15,1.,-1.38165618624997E-15));
#399=DIRECTION('',(-5.61195011061036E-15,1.52480299752686E-15,1.));
#400=DIRECTION('',(1.9314479156418E-15,-1.,1.38165618624997E-15));
#401=DIRECTION('',(5.61195011061036E-15,-1.49267848871247E-15,-1.));
#402=DIRECTION('center_axis',(-1.,-1.98695906687307E-15,-5.66746126184161E-15));
#403=DIRECTION('ref_axis',(1.98695906687306E-15,-1.,1.38165618624997E-15));
#404=DIRECTION('center_axis',(1.,1.98695906687307E-15,5.66746126184161E-15));
#405=DIRECTION('ref_axis',(1.98695906687306E-15,-1.,1.38165618624997E-15));
#406=DIRECTION('',(-1.,-1.98695906687307E-15,-5.66746126184161E-15));
#407=DIRECTION('center_axis',(4.13155855059452E-16,-0.965925826289069,0.25881904510252));
#408=DIRECTION('ref_axis',(-5.920623052876E-15,0.25881904510252,0.965925826289069));
#409=DIRECTION('',(5.920623052876E-15,-0.258819045102521,-0.965925826289068));
#410=DIRECTION('',(-1.,-1.98695906687307E-15,-5.66746126184161E-15));
#411=DIRECTION('center_axis',(1.9314479156418E-15,-1.,1.38165618624997E-15));
#412=DIRECTION('ref_axis',(1.,1.93144791564181E-15,5.66746126184161E-15));
#413=DIRECTION('',(5.61195011061036E-15,-1.49267848871247E-15,-1.));
#414=DIRECTION('',(-1.,-1.98695906687307E-15,-5.66746126184161E-15));
#415=DIRECTION('center_axis',(-5.61195011061036E-15,1.49267848871247E-15,
1.));
#416=DIRECTION('ref_axis',(-1.,-1.98695906687307E-15,-5.61195011061036E-15));
#417=DIRECTION('',(1.9314479156418E-15,-1.,1.38165618624997E-15));
#418=DIRECTION('',(-1.,-1.98695906687307E-15,-5.66746126184161E-15));
#419=DIRECTION('center_axis',(-1.9314479156418E-15,1.,-1.41378069506436E-15));
#420=DIRECTION('ref_axis',(5.61195011061036E-15,-1.41378069506435E-15,-1.));
#421=DIRECTION('',(-5.61195011061036E-15,1.52480299752686E-15,1.));
#422=DIRECTION('',(-1.,-1.98695906687307E-15,-5.66746126184161E-15));
#423=DIRECTION('center_axis',(5.61195011061036E-15,-1.49267848871247E-15,
-1.));
#424=DIRECTION('ref_axis',(1.,1.98695906687307E-15,5.61195011061036E-15));
#425=DIRECTION('',(-1.9314479156418E-15,1.,-1.38165618624997E-15));
#426=DIRECTION('',(-1.,-1.98695906687307E-15,-5.66746126184161E-15));
#427=DIRECTION('center_axis',(-1.,-1.98695906687307E-15,-5.66746126184161E-15));
#428=DIRECTION('ref_axis',(-3.34190209086824E-15,0.968187100128893,0.25022737488933));
#429=DIRECTION('center_axis',(-1.,-1.98695906687307E-15,-5.66746126184161E-15));
#430=DIRECTION('ref_axis',(-1.98695906687306E-15,1.,-1.38165618624997E-15));
#431=DIRECTION('',(-1.,-1.98695906687307E-15,-5.66746126184161E-15));
#432=DIRECTION('center_axis',(4.47865801633745E-15,-0.866025403784439,-0.499999999999999));
#433=DIRECTION('ref_axis',(-3.89436740273857E-15,-0.499999999999999,0.866025403784439));
#434=DIRECTION('',(3.89436740273857E-15,0.499999999999999,-0.866025403784439));
#435=DIRECTION('',(-1.,-1.98695906687307E-15,-5.66746126184161E-15));
#436=DIRECTION('center_axis',(-3.89436740273868E-15,-0.499999999999976,
0.866025403784453));
#437=DIRECTION('ref_axis',(-4.47865801633737E-15,0.866025403784453,0.499999999999976));
#438=DIRECTION('',(4.47865801633738E-15,-0.866025403784452,-0.499999999999976));
#439=DIRECTION('',(-1.,-1.98695906687307E-15,-5.66746126184161E-15));
#440=DIRECTION('center_axis',(-4.4786580163374E-15,0.866025403784449,0.499999999999982));
#441=DIRECTION('ref_axis',(3.89436740273865E-15,0.499999999999982,-0.866025403784449));
#442=DIRECTION('',(-3.89436740273865E-15,-0.499999999999982,0.866025403784449));
#443=DIRECTION('',(-1.,-1.98695906687307E-15,-5.66746126184161E-15));
#444=DIRECTION('center_axis',(3.98450757027598E-15,0.482311491702717,-0.875999785942611));
#445=DIRECTION('ref_axis',(4.39865598987123E-15,-0.875999785942611,-0.482311491702717));
#446=DIRECTION('',(-4.39865598987123E-15,0.875999785942611,0.482311491702717));
#447=DIRECTION('',(-1.,-1.98695906687307E-15,-5.66746126184161E-15));
#448=DIRECTION('center_axis',(-1.,-1.98695906687307E-15,-5.66746126184161E-15));
#449=DIRECTION('ref_axis',(-3.33556538810098E-15,0.968503945769614,0.248998206878461));
#450=DIRECTION('center_axis',(1.,1.98695906687307E-15,5.66746126184161E-15));
#451=DIRECTION('ref_axis',(1.98695906687306E-15,-1.,1.38165618624997E-15));
#452=DIRECTION('',(-1.,-1.98695906687307E-15,-5.66746126184161E-15));
#453=DIRECTION('center_axis',(-5.61195011061036E-15,1.49267848871247E-15,
1.));
#454=DIRECTION('ref_axis',(-1.,-1.98695906687307E-15,-5.61195011061036E-15));
#455=DIRECTION('',(1.9314479156418E-15,-1.,1.38165618624997E-15));
#456=DIRECTION('',(-1.,-1.98695906687307E-15,-5.66746126184161E-15));
#457=DIRECTION('center_axis',(1.9314479156418E-15,-1.,1.38165618624997E-15));
#458=DIRECTION('ref_axis',(1.,1.93144791564181E-15,5.66746126184161E-15));
#459=DIRECTION('',(5.61195011061036E-15,-1.49267848871247E-15,-1.));
#460=DIRECTION('center_axis',(1.,1.98695906687307E-15,5.66746126184161E-15));
#461=DIRECTION('ref_axis',(-1.98695906687306E-15,1.,-1.38165618624997E-15));
#462=CARTESIAN_POINT('',(0.,0.,0.));
#463=CARTESIAN_POINT('Origin',(1000.,-12.999999999998,-5.19615242270093));
#464=CARTESIAN_POINT('',(850.,-12.9999999999983,-5.19615242270177));
#465=CARTESIAN_POINT('',(850.,-12.9999999999983,-14.2679491924262));
#466=CARTESIAN_POINT('',(850.,-12.9999999999983,-5.19615242270178));
#467=CARTESIAN_POINT('',(1000.,-12.999999999998,-5.19615242270092));
#468=CARTESIAN_POINT('',(1000.,-12.999999999998,-5.19615242270092));
#469=CARTESIAN_POINT('',(1000.,-12.999999999998,-14.2679491924254));
#470=CARTESIAN_POINT('',(1000.,-12.999999999998,-5.19615242270093));
#471=CARTESIAN_POINT('',(1000.,-12.999999999998,-14.2679491924254));
#472=CARTESIAN_POINT('Origin',(1000.,1.97758476261356E-12,5.69856661858381E-12));
#473=CARTESIAN_POINT('',(1000.,-13.999999999998,-17.9999999999943));
#474=CARTESIAN_POINT('',(1000.,-12.999999999998,-14.2679491924254));
#475=CARTESIAN_POINT('',(1000.,-12.999999999998,5.19615242271237));
#476=CARTESIAN_POINT('Origin',(1000.,2.04350425470068E-12,5.69856661858381E-12));
#477=CARTESIAN_POINT('',(1000.,-12.999999999998,14.0000000000057));
#478=CARTESIAN_POINT('',(1000.,-12.999999999998,14.0000000000057));
#479=CARTESIAN_POINT('',(1000.,2.00880978518115E-12,14.0000000000057));
#480=CARTESIAN_POINT('',(1000.,2.00187089127724E-12,14.0000000000057));
#481=CARTESIAN_POINT('',(1000.,6.75236088383978,-12.2639970031911));
#482=CARTESIAN_POINT('Origin',(1000.,1.96023752785379E-12,5.66387214906428E-12));
#483=CARTESIAN_POINT('',(1000.,5.00000000000173,-13.2288189191873));
#484=CARTESIAN_POINT('',(1000.,5.00000000000173,-13.2288189191873));
#485=CARTESIAN_POINT('',(1000.,7.52049051937602,-17.5944365587394));
#486=CARTESIAN_POINT('',(1000.,7.52049051937602,-17.5944365587394));
#487=CARTESIAN_POINT('',(1000.,9.25254132694492,-16.5944365587395));
#488=CARTESIAN_POINT('',(1000.,9.25254132694492,-16.5944365587395));
#489=CARTESIAN_POINT('',(1000.,7.75254132694491,-13.9963603473861));
#490=CARTESIAN_POINT('',(1000.,7.75254132694492,-13.9963603473861));
#491=CARTESIAN_POINT('',(1000.,2.00534033822919E-12,16.0000000000057));
#492=CARTESIAN_POINT('Origin',(1000.,1.97758476261356E-12,5.69856661858381E-12));
#493=CARTESIAN_POINT('',(1000.,-15.999999999998,16.0000000000057));
#494=CARTESIAN_POINT('',(1000.,-15.999999999998,16.0000000000057));
#495=CARTESIAN_POINT('',(1000.,-15.9999999999981,-37.9999999999943));
#496=CARTESIAN_POINT('',(1000.,-15.9999999999981,-37.9999999999943));
#497=CARTESIAN_POINT('',(1000.,-13.9999999999981,-37.9999999999943));
#498=CARTESIAN_POINT('',(1000.,-13.9999999999981,-37.9999999999943));
#499=CARTESIAN_POINT('',(1000.,-13.999999999998,-17.9999999999943));
#500=CARTESIAN_POINT('Origin',(1000.,2.04350425470068E-12,5.69856661858381E-12));
#501=CARTESIAN_POINT('',(850.,-12.9999999999983,5.19615242271152));
#502=CARTESIAN_POINT('Origin',(850.,1.74700531818672E-12,4.84959294944076E-12));
#503=CARTESIAN_POINT('',(1000.,-12.999999999998,5.19615242271237));
#504=CARTESIAN_POINT('Origin',(1000.,-12.999999999998,-14.2679491924254));
#505=CARTESIAN_POINT('',(850.,-13.9999999999983,-17.9999999999952));
#506=CARTESIAN_POINT('',(850.,-12.9999999999983,-14.2679491924262));
#507=CARTESIAN_POINT('',(1000.,-13.999999999998,-17.9999999999943));
#508=CARTESIAN_POINT('Origin',(1000.,-13.999999999998,-17.9999999999943));
#509=CARTESIAN_POINT('',(850.,-13.9999999999983,-37.9999999999952));
#510=CARTESIAN_POINT('',(850.,-13.9999999999983,-17.9999999999952));
#511=CARTESIAN_POINT('',(1000.,-13.9999999999981,-37.9999999999943));
#512=CARTESIAN_POINT('Origin',(1000.,-13.9999999999981,-37.9999999999943));
#513=CARTESIAN_POINT('',(850.,-15.9999999999983,-37.9999999999952));
#514=CARTESIAN_POINT('',(850.,-13.9999999999983,-37.9999999999952));
#515=CARTESIAN_POINT('',(1000.,-15.9999999999981,-37.9999999999943));
#516=CARTESIAN_POINT('Origin',(1000.,-15.9999999999981,-37.9999999999943));
#517=CARTESIAN_POINT('',(850.,-15.9999999999983,16.0000000000048));
#518=CARTESIAN_POINT('',(850.,-15.9999999999983,-37.9999999999952));
#519=CARTESIAN_POINT('',(1000.,-15.999999999998,16.0000000000057));
#520=CARTESIAN_POINT('Origin',(1000.,-15.999999999998,16.0000000000057));
#521=CARTESIAN_POINT('',(850.,1.70884140171523E-12,16.0000000000048));
#522=CARTESIAN_POINT('',(850.,-15.9999999999983,16.0000000000048));
#523=CARTESIAN_POINT('',(1000.,2.00534033822919E-12,16.0000000000057));
#524=CARTESIAN_POINT('Origin',(1000.,1.97758476261356E-12,5.69856661858381E-12));
#525=CARTESIAN_POINT('',(850.,7.75254132694462,-13.996360347387));
#526=CARTESIAN_POINT('Origin',(850.,1.6810858260996E-12,4.84959294944076E-12));
#527=CARTESIAN_POINT('',(1000.,7.75254132694491,-13.9963603473861));
#528=CARTESIAN_POINT('Origin',(1000.,7.75254132694492,-13.9963603473861));
#529=CARTESIAN_POINT('',(850.,9.25254132694462,-16.5944365587404));
#530=CARTESIAN_POINT('',(850.,7.75254132694462,-13.996360347387));
#531=CARTESIAN_POINT('',(1000.,9.25254132694492,-16.5944365587395));
#532=CARTESIAN_POINT('Origin',(1000.,9.25254132694492,-16.5944365587395));
#533=CARTESIAN_POINT('',(850.,7.52049051937572,-17.5944365587403));
#534=CARTESIAN_POINT('',(850.,9.25254132694462,-16.5944365587404));
#535=CARTESIAN_POINT('',(1000.,7.52049051937602,-17.5944365587394));
#536=CARTESIAN_POINT('Origin',(1000.,7.52049051937602,-17.5944365587394));
#537=CARTESIAN_POINT('',(850.,5.00000000000143,-13.2288189191881));
#538=CARTESIAN_POINT('',(850.,7.52049051937572,-17.5944365587403));
#539=CARTESIAN_POINT('',(1000.,5.00000000000173,-13.2288189191873));
#540=CARTESIAN_POINT('Origin',(1000.,5.00000000000173,-13.2288189191873));
#541=CARTESIAN_POINT('',(850.,6.75236088383948,-12.2639970031919));
#542=CARTESIAN_POINT('',(850.,5.00000000000143,-13.2288189191881));
#543=CARTESIAN_POINT('',(1000.,6.75236088383978,-12.2639970031911));
#544=CARTESIAN_POINT('Origin',(1000.,1.96023752785379E-12,5.66387214906428E-12));
#545=CARTESIAN_POINT('',(850.,1.71231084866719E-12,14.0000000000048));
#546=CARTESIAN_POINT('Origin',(850.,1.66373859133984E-12,4.81489847992123E-12));
#547=CARTESIAN_POINT('',(1000.,2.00880978518115E-12,14.0000000000057));
#548=CARTESIAN_POINT('Origin',(1000.,2.00187089127724E-12,14.0000000000057));
#549=CARTESIAN_POINT('',(850.,-12.9999999999983,14.0000000000048));
#550=CARTESIAN_POINT('',(850.,1.70537195476328E-12,14.0000000000048));
#551=CARTESIAN_POINT('',(1000.,-12.999999999998,14.0000000000057));
#552=CARTESIAN_POINT('Origin',(1000.,-12.999999999998,14.0000000000057));
#553=CARTESIAN_POINT('',(850.,-12.9999999999983,14.0000000000048));
#554=CARTESIAN_POINT('Origin',(850.,1.6810858260996E-12,4.84959294944076E-12));
#555=UNCERTAINTY_MEASURE_WITH_UNIT(LENGTH_MEASURE(0.01),#559,
'DISTANCE_ACCURACY_VALUE',
'Maximum model space distance between geometric entities at asserted c
onnectivities');
#556=UNCERTAINTY_MEASURE_WITH_UNIT(LENGTH_MEASURE(0.01),#559,
'DISTANCE_ACCURACY_VALUE',
'Maximum model space distance between geometric entities at asserted c
onnectivities');
#557=(
GEOMETRIC_REPRESENTATION_CONTEXT(3)
GLOBAL_UNCERTAINTY_ASSIGNED_CONTEXT((#555))
GLOBAL_UNIT_ASSIGNED_CONTEXT((#559,#561,#562))
REPRESENTATION_CONTEXT('','3D')
);
#558=(
GEOMETRIC_REPRESENTATION_CONTEXT(3)
GLOBAL_UNCERTAINTY_ASSIGNED_CONTEXT((#556))
GLOBAL_UNIT_ASSIGNED_CONTEXT((#559,#561,#562))
REPRESENTATION_CONTEXT('','3D')
);
#559=(
LENGTH_UNIT()
NAMED_UNIT(*)
SI_UNIT(.MILLI.,.METRE.)
);
#560=(
LENGTH_UNIT()
NAMED_UNIT(*)
SI_UNIT(.CENTI.,.METRE.)
);
#561=(
NAMED_UNIT(*)
PLANE_ANGLE_UNIT()
SI_UNIT($,.RADIAN.)
);
#562=(
NAMED_UNIT(*)
SI_UNIT($,.STERADIAN.)
SOLID_ANGLE_UNIT()
);
#563=SHAPE_DEFINITION_REPRESENTATION(#564,#565);
#564=PRODUCT_DEFINITION_SHAPE('',$,#567);
#565=SHAPE_REPRESENTATION('',(#351),#557);
#566=PRODUCT_DEFINITION_CONTEXT('part definition',#571,'design');
#567=PRODUCT_DEFINITION('700019','700019',#568,#566);
#568=PRODUCT_DEFINITION_FORMATION('',$,#573);
#569=PRODUCT_RELATED_PRODUCT_CATEGORY('700019','700019',(#573));
#570=APPLICATION_PROTOCOL_DEFINITION('international standard',
'automotive_design',2009,#571);
#571=APPLICATION_CONTEXT(
'Core Data for Automotive Mechanical Design Process');
#572=PRODUCT_CONTEXT('part definition',#571,'mechanical');
#573=PRODUCT('700019','700019',$,(#572));
#574=PRESENTATION_STYLE_ASSIGNMENT((#576));
#575=PRESENTATION_STYLE_ASSIGNMENT((#577));
#576=SURFACE_STYLE_USAGE(.BOTH.,#582);
#577=SURFACE_STYLE_USAGE(.BOTH.,#583);
#578=SURFACE_STYLE_RENDERING_WITH_PROPERTIES($,#590,(#580));
#579=SURFACE_STYLE_RENDERING_WITH_PROPERTIES($,#591,(#581));
#580=SURFACE_STYLE_TRANSPARENT(0.);
#581=SURFACE_STYLE_TRANSPARENT(0.);
#582=SURFACE_SIDE_STYLE('',(#584,#578));
#583=SURFACE_SIDE_STYLE('',(#585,#579));
#584=SURFACE_STYLE_FILL_AREA(#586);
#585=SURFACE_STYLE_FILL_AREA(#587);
#586=FILL_AREA_STYLE('',(#588));
#587=FILL_AREA_STYLE('',(#589));
#588=FILL_AREA_STYLE_COLOUR('',#590);
#589=FILL_AREA_STYLE_COLOUR('',#591);
#590=COLOUR_RGB('',0.749019607843137,0.749019607843137,0.749019607843137);
#591=COLOUR_RGB('',0.96078431372549,0.937254901960784,0.705882352941177);
ENDSEC;
END-ISO-10303-21;
