ISO-10303-21;
HEADER;
/* Generated by software containing ST-Developer
 * from STEP Tools, Inc. (www.steptools.com) 
 */

FILE_DESCRIPTION(
/* description */ (
'Matice M4 s kuli\X2\010D\X0\kou pro serii 40 dr\X\E1\X2\017E\X0\ka 8,
 \X2\0159\X0\ada 17'),
/* implementation_level */ '2;1');

FILE_NAME(
/* name */ '210204.stp',
/* time_stamp */ '2024-10-15T16:10:35+02:00',
/* author */ ('jiri.spacek'),
/* organization */ ('Alutec K&K'),
/* preprocessor_version */ 'ST-DEVELOPER v20',
/* originating_system */ 'Autodesk Inventor 2024',
/* authorisation */ '');

FILE_SCHEMA (('AUTOMOTIVE_DESIGN { 1 0 10303 214 3 1 1 }'));
ENDSEC;

DATA;
#10=MECHANICAL_DESIGN_GEOMETRIC_PRESENTATION_REPRESENTATION('',(#13,#14),
#516);
#11=SHAPE_REPRESENTATION_RELATIONSHIP('SRR','None',#523,#12);
#12=ADVANCED_BREP_SHAPE_REPRESENTATION('',(#15,#16),#515);
#13=STYLED_ITEM('',(#532),#15);
#14=STYLED_ITEM('',(#532),#16);
#15=MANIFOLD_SOLID_BREP('T\X2\011B\X0\leso1',#280);
#16=MANIFOLD_SOLID_BREP('T\X2\011B\X0\leso2',#281);
#17=FACE_BOUND('',#94,.T.);
#18=FACE_BOUND('',#102,.T.);
#19=PLANE('',#312);
#20=PLANE('',#316);
#21=PLANE('',#320);
#22=PLANE('',#321);
#23=PLANE('',#322);
#24=PLANE('',#323);
#25=PLANE('',#324);
#26=PLANE('',#325);
#27=PLANE('',#326);
#28=LINE('',#452,#51);
#29=LINE('',#456,#52);
#30=LINE('',#459,#53);
#31=LINE('',#462,#54);
#32=LINE('',#463,#55);
#33=LINE('',#468,#56);
#34=LINE('',#473,#57);
#35=LINE('',#476,#58);
#36=LINE('',#478,#59);
#37=LINE('',#480,#60);
#38=LINE('',#482,#61);
#39=LINE('',#483,#62);
#40=LINE('',#485,#63);
#41=LINE('',#487,#64);
#42=LINE('',#492,#65);
#43=LINE('',#493,#66);
#44=LINE('',#496,#67);
#45=LINE('',#497,#68);
#46=LINE('',#500,#69);
#47=LINE('',#501,#70);
#48=LINE('',#504,#71);
#49=LINE('',#505,#72);
#50=LINE('',#507,#73);
#51=VECTOR('',#343,10.);
#52=VECTOR('',#346,10.);
#53=VECTOR('',#349,10.);
#54=VECTOR('',#352,10.);
#55=VECTOR('',#353,10.);
#56=VECTOR('',#358,1.621);
#57=VECTOR('',#363,10.);
#58=VECTOR('',#366,10.);
#59=VECTOR('',#367,10.);
#60=VECTOR('',#368,10.);
#61=VECTOR('',#369,10.);
#62=VECTOR('',#370,10.);
#63=VECTOR('',#373,10.);
#64=VECTOR('',#374,10.);
#65=VECTOR('',#381,10.);
#66=VECTOR('',#382,10.);
#67=VECTOR('',#385,10.);
#68=VECTOR('',#386,10.);
#69=VECTOR('',#389,10.);
#70=VECTOR('',#390,10.);
#71=VECTOR('',#393,10.);
#72=VECTOR('',#394,10.);
#73=VECTOR('',#397,10.);
#74=CYLINDRICAL_SURFACE('',#309,15.);
#75=CYLINDRICAL_SURFACE('',#314,1.621);
#76=CYLINDRICAL_SURFACE('',#318,15.);
#77=FACE_OUTER_BOUND('',#91,.T.);
#78=FACE_OUTER_BOUND('',#92,.T.);
#79=FACE_OUTER_BOUND('',#93,.T.);
#80=FACE_OUTER_BOUND('',#95,.T.);
#81=FACE_OUTER_BOUND('',#96,.T.);
#82=FACE_OUTER_BOUND('',#97,.T.);
#83=FACE_OUTER_BOUND('',#98,.T.);
#84=FACE_OUTER_BOUND('',#99,.T.);
#85=FACE_OUTER_BOUND('',#100,.T.);
#86=FACE_OUTER_BOUND('',#101,.T.);
#87=FACE_OUTER_BOUND('',#103,.T.);
#88=FACE_OUTER_BOUND('',#104,.T.);
#89=FACE_OUTER_BOUND('',#105,.T.);
#90=FACE_OUTER_BOUND('',#106,.T.);
#91=EDGE_LOOP('',(#188,#189,#190,#191,#192,#193,#194,#195,#196,#197));
#92=EDGE_LOOP('',(#198,#199,#200,#201,#202,#203,#204));
#93=EDGE_LOOP('',(#205,#206,#207,#208));
#94=EDGE_LOOP('',(#209));
#95=EDGE_LOOP('',(#210,#211,#212,#213));
#96=EDGE_LOOP('',(#214,#215,#216,#217,#218,#219,#220,#221));
#97=EDGE_LOOP('',(#222,#223,#224,#225,#226,#227,#228));
#98=EDGE_LOOP('',(#229,#230,#231,#232));
#99=EDGE_LOOP('',(#233,#234,#235,#236));
#100=EDGE_LOOP('',(#237,#238,#239,#240));
#101=EDGE_LOOP('',(#241,#242,#243,#244));
#102=EDGE_LOOP('',(#245));
#103=EDGE_LOOP('',(#246,#247,#248,#249));
#104=EDGE_LOOP('',(#250,#251,#252,#253));
#105=EDGE_LOOP('',(#254,#255,#256,#257,#258,#259,#260,#261));
#106=EDGE_LOOP('',(#262,#263));
#107=CIRCLE('',#305,2.3685438564654);
#108=CIRCLE('',#306,2.5);
#109=CIRCLE('',#307,2.3685438564654);
#110=CIRCLE('',#308,2.5);
#111=CIRCLE('',#310,15.);
#112=CIRCLE('',#311,15.);
#113=CIRCLE('',#313,1.621);
#114=CIRCLE('',#315,1.621);
#115=CIRCLE('',#317,15.);
#116=CIRCLE('',#319,15.);
#117=CIRCLE('',#328,2.5);
#118=B_SPLINE_CURVE_WITH_KNOTS('',3,(#408,#409,#410,#411,#412,#413,#414,
#415),.UNSPECIFIED.,.F.,.F.,(4,2,2,4),(-0.137462135034752,-0.120896231598584,
-0.060448115799292,0.),.UNSPECIFIED.);
#119=B_SPLINE_CURVE_WITH_KNOTS('',3,(#419,#420,#421,#422,#423,#424,#425,
#426),.UNSPECIFIED.,.F.,.F.,(4,2,2,4),(0.541387414188578,0.601835529987871,
0.662283645787163,0.678849549223331),.UNSPECIFIED.);
#120=B_SPLINE_CURVE_WITH_KNOTS('',3,(#430,#431,#432,#433,#434,#435,#436,
#437),.UNSPECIFIED.,.F.,.F.,(4,2,2,4),(0.403925279153826,0.420491182589994,
0.480939298389287,0.541387414188578),.UNSPECIFIED.);
#121=B_SPLINE_CURVE_WITH_KNOTS('',3,(#440,#441,#442,#443,#444,#445,#446,
#447),.UNSPECIFIED.,.F.,.F.,(4,2,2,4),(0.,0.0604481157992919,0.120896231598584,
0.137462135034752),.UNSPECIFIED.);
#122=VERTEX_POINT('',#406);
#123=VERTEX_POINT('',#407);
#124=VERTEX_POINT('',#416);
#125=VERTEX_POINT('',#418);
#126=VERTEX_POINT('',#427);
#127=VERTEX_POINT('',#429);
#128=VERTEX_POINT('',#438);
#129=VERTEX_POINT('',#448);
#130=VERTEX_POINT('',#451);
#131=VERTEX_POINT('',#453);
#132=VERTEX_POINT('',#455);
#133=VERTEX_POINT('',#457);
#134=VERTEX_POINT('',#461);
#135=VERTEX_POINT('',#464);
#136=VERTEX_POINT('',#467);
#137=VERTEX_POINT('',#471);
#138=VERTEX_POINT('',#472);
#139=VERTEX_POINT('',#474);
#140=VERTEX_POINT('',#477);
#141=VERTEX_POINT('',#479);
#142=VERTEX_POINT('',#481);
#143=VERTEX_POINT('',#486);
#144=VERTEX_POINT('',#491);
#145=VERTEX_POINT('',#495);
#146=VERTEX_POINT('',#499);
#147=VERTEX_POINT('',#503);
#148=VERTEX_POINT('',#510);
#149=VERTEX_POINT('',#511);
#150=EDGE_CURVE('',#122,#123,#118,.T.);
#151=EDGE_CURVE('',#124,#122,#107,.T.);
#152=EDGE_CURVE('',#125,#124,#119,.T.);
#153=EDGE_CURVE('',#125,#126,#108,.T.);
#154=EDGE_CURVE('',#127,#125,#120,.T.);
#155=EDGE_CURVE('',#128,#127,#109,.T.);
#156=EDGE_CURVE('',#123,#128,#121,.T.);
#157=EDGE_CURVE('',#129,#123,#110,.T.);
#158=EDGE_CURVE('',#124,#130,#28,.T.);
#159=EDGE_CURVE('',#131,#130,#111,.T.);
#160=EDGE_CURVE('',#132,#131,#29,.T.);
#161=EDGE_CURVE('',#133,#132,#112,.T.);
#162=EDGE_CURVE('',#133,#127,#30,.T.);
#163=EDGE_CURVE('',#122,#134,#31,.T.);
#164=EDGE_CURVE('',#130,#134,#32,.T.);
#165=EDGE_CURVE('',#135,#135,#113,.T.);
#166=EDGE_CURVE('',#135,#136,#33,.T.);
#167=EDGE_CURVE('',#136,#136,#114,.T.);
#168=EDGE_CURVE('',#137,#138,#34,.T.);
#169=EDGE_CURVE('',#138,#139,#115,.T.);
#170=EDGE_CURVE('',#139,#133,#35,.T.);
#171=EDGE_CURVE('',#132,#140,#36,.T.);
#172=EDGE_CURVE('',#140,#141,#37,.T.);
#173=EDGE_CURVE('',#141,#142,#38,.T.);
#174=EDGE_CURVE('',#142,#137,#39,.T.);
#175=EDGE_CURVE('',#139,#128,#40,.T.);
#176=EDGE_CURVE('',#143,#138,#41,.T.);
#177=EDGE_CURVE('',#134,#143,#116,.T.);
#178=EDGE_CURVE('',#144,#131,#42,.T.);
#179=EDGE_CURVE('',#140,#144,#43,.T.);
#180=EDGE_CURVE('',#145,#144,#44,.T.);
#181=EDGE_CURVE('',#141,#145,#45,.T.);
#182=EDGE_CURVE('',#146,#145,#46,.T.);
#183=EDGE_CURVE('',#142,#146,#47,.T.);
#184=EDGE_CURVE('',#147,#146,#48,.T.);
#185=EDGE_CURVE('',#137,#147,#49,.T.);
#186=EDGE_CURVE('',#143,#147,#50,.T.);
#187=EDGE_CURVE('',#148,#149,#117,.T.);
#188=ORIENTED_EDGE('',*,*,#150,.F.);
#189=ORIENTED_EDGE('',*,*,#151,.F.);
#190=ORIENTED_EDGE('',*,*,#152,.F.);
#191=ORIENTED_EDGE('',*,*,#153,.T.);
#192=ORIENTED_EDGE('',*,*,#153,.F.);
#193=ORIENTED_EDGE('',*,*,#154,.F.);
#194=ORIENTED_EDGE('',*,*,#155,.F.);
#195=ORIENTED_EDGE('',*,*,#156,.F.);
#196=ORIENTED_EDGE('',*,*,#157,.F.);
#197=ORIENTED_EDGE('',*,*,#157,.T.);
#198=ORIENTED_EDGE('',*,*,#154,.T.);
#199=ORIENTED_EDGE('',*,*,#152,.T.);
#200=ORIENTED_EDGE('',*,*,#158,.T.);
#201=ORIENTED_EDGE('',*,*,#159,.F.);
#202=ORIENTED_EDGE('',*,*,#160,.F.);
#203=ORIENTED_EDGE('',*,*,#161,.F.);
#204=ORIENTED_EDGE('',*,*,#162,.T.);
#205=ORIENTED_EDGE('',*,*,#151,.T.);
#206=ORIENTED_EDGE('',*,*,#163,.T.);
#207=ORIENTED_EDGE('',*,*,#164,.F.);
#208=ORIENTED_EDGE('',*,*,#158,.F.);
#209=ORIENTED_EDGE('',*,*,#165,.T.);
#210=ORIENTED_EDGE('',*,*,#165,.F.);
#211=ORIENTED_EDGE('',*,*,#166,.T.);
#212=ORIENTED_EDGE('',*,*,#167,.F.);
#213=ORIENTED_EDGE('',*,*,#166,.F.);
#214=ORIENTED_EDGE('',*,*,#168,.T.);
#215=ORIENTED_EDGE('',*,*,#169,.T.);
#216=ORIENTED_EDGE('',*,*,#170,.T.);
#217=ORIENTED_EDGE('',*,*,#161,.T.);
#218=ORIENTED_EDGE('',*,*,#171,.T.);
#219=ORIENTED_EDGE('',*,*,#172,.T.);
#220=ORIENTED_EDGE('',*,*,#173,.T.);
#221=ORIENTED_EDGE('',*,*,#174,.T.);
#222=ORIENTED_EDGE('',*,*,#150,.T.);
#223=ORIENTED_EDGE('',*,*,#156,.T.);
#224=ORIENTED_EDGE('',*,*,#175,.F.);
#225=ORIENTED_EDGE('',*,*,#169,.F.);
#226=ORIENTED_EDGE('',*,*,#176,.F.);
#227=ORIENTED_EDGE('',*,*,#177,.F.);
#228=ORIENTED_EDGE('',*,*,#163,.F.);
#229=ORIENTED_EDGE('',*,*,#155,.T.);
#230=ORIENTED_EDGE('',*,*,#162,.F.);
#231=ORIENTED_EDGE('',*,*,#170,.F.);
#232=ORIENTED_EDGE('',*,*,#175,.T.);
#233=ORIENTED_EDGE('',*,*,#160,.T.);
#234=ORIENTED_EDGE('',*,*,#178,.F.);
#235=ORIENTED_EDGE('',*,*,#179,.F.);
#236=ORIENTED_EDGE('',*,*,#171,.F.);
#237=ORIENTED_EDGE('',*,*,#179,.T.);
#238=ORIENTED_EDGE('',*,*,#180,.F.);
#239=ORIENTED_EDGE('',*,*,#181,.F.);
#240=ORIENTED_EDGE('',*,*,#172,.F.);
#241=ORIENTED_EDGE('',*,*,#181,.T.);
#242=ORIENTED_EDGE('',*,*,#182,.F.);
#243=ORIENTED_EDGE('',*,*,#183,.F.);
#244=ORIENTED_EDGE('',*,*,#173,.F.);
#245=ORIENTED_EDGE('',*,*,#167,.T.);
#246=ORIENTED_EDGE('',*,*,#183,.T.);
#247=ORIENTED_EDGE('',*,*,#184,.F.);
#248=ORIENTED_EDGE('',*,*,#185,.F.);
#249=ORIENTED_EDGE('',*,*,#174,.F.);
#250=ORIENTED_EDGE('',*,*,#185,.T.);
#251=ORIENTED_EDGE('',*,*,#186,.F.);
#252=ORIENTED_EDGE('',*,*,#176,.T.);
#253=ORIENTED_EDGE('',*,*,#168,.F.);
#254=ORIENTED_EDGE('',*,*,#186,.T.);
#255=ORIENTED_EDGE('',*,*,#184,.T.);
#256=ORIENTED_EDGE('',*,*,#182,.T.);
#257=ORIENTED_EDGE('',*,*,#180,.T.);
#258=ORIENTED_EDGE('',*,*,#178,.T.);
#259=ORIENTED_EDGE('',*,*,#159,.T.);
#260=ORIENTED_EDGE('',*,*,#164,.T.);
#261=ORIENTED_EDGE('',*,*,#177,.T.);
#262=ORIENTED_EDGE('',*,*,#187,.T.);
#263=ORIENTED_EDGE('',*,*,#187,.F.);
#264=SPHERICAL_SURFACE('',#304,2.5);
#265=SPHERICAL_SURFACE('',#327,2.5);
#266=ADVANCED_FACE('',(#77),#264,.F.);
#267=ADVANCED_FACE('',(#78),#74,.T.);
#268=ADVANCED_FACE('',(#79,#17),#19,.T.);
#269=ADVANCED_FACE('',(#80),#75,.F.);
#270=ADVANCED_FACE('',(#81),#20,.F.);
#271=ADVANCED_FACE('',(#82),#76,.T.);
#272=ADVANCED_FACE('',(#83),#21,.T.);
#273=ADVANCED_FACE('',(#84),#22,.T.);
#274=ADVANCED_FACE('',(#85),#23,.T.);
#275=ADVANCED_FACE('',(#86,#18),#24,.T.);
#276=ADVANCED_FACE('',(#87),#25,.T.);
#277=ADVANCED_FACE('',(#88),#26,.T.);
#278=ADVANCED_FACE('',(#89),#27,.T.);
#279=ADVANCED_FACE('',(#90),#265,.T.);
#280=CLOSED_SHELL('',(#266,#267,#268,#269,#270,#271,#272,#273,#274,#275,
#276,#277,#278));
#281=CLOSED_SHELL('',(#279));
#282=DERIVED_UNIT_ELEMENT(#285,1.);
#283=DERIVED_UNIT_ELEMENT(#518,-3.);
#284=DIMENSIONAL_EXPONENTS(0.,1.,0.,0.,0.,0.,0.);
#285=(
CONVERSION_BASED_UNIT('gram',#287)
MASS_UNIT()
NAMED_UNIT(#284)
);
#286=(
MASS_UNIT()
NAMED_UNIT(*)
SI_UNIT(.KILO.,.GRAM.)
);
#287=MASS_MEASURE_WITH_UNIT(MASS_MEASURE(0.001),#286);
#288=DERIVED_UNIT((#282,#283));
#289=MEASURE_REPRESENTATION_ITEM('density measure',
POSITIVE_RATIO_MEASURE(7.85),#288);
#290=PROPERTY_DEFINITION_REPRESENTATION(#295,#292);
#291=PROPERTY_DEFINITION_REPRESENTATION(#296,#293);
#292=REPRESENTATION('material name',(#294),#515);
#293=REPRESENTATION('density',(#289),#515);
#294=DESCRIPTIVE_REPRESENTATION_ITEM('Ocel pozinkovan\X\E1',
'Ocel pozinkovan\X\E1');
#295=PROPERTY_DEFINITION('material property','material name',#525);
#296=PROPERTY_DEFINITION('material property','density of part',#525);
#297=DATE_TIME_ROLE('creation_date');
#298=APPLIED_DATE_AND_TIME_ASSIGNMENT(#299,#297,(#525));
#299=DATE_AND_TIME(#300,#301);
#300=CALENDAR_DATE(2024,9,10);
#301=LOCAL_TIME(0,0,0.,#302);
#302=COORDINATED_UNIVERSAL_TIME_OFFSET(0,0,.BEHIND.);
#303=AXIS2_PLACEMENT_3D('',#404,#329,#330);
#304=AXIS2_PLACEMENT_3D('',#405,#331,#332);
#305=AXIS2_PLACEMENT_3D('',#417,#333,#334);
#306=AXIS2_PLACEMENT_3D('',#428,#335,#336);
#307=AXIS2_PLACEMENT_3D('',#439,#337,#338);
#308=AXIS2_PLACEMENT_3D('',#449,#339,#340);
#309=AXIS2_PLACEMENT_3D('',#450,#341,#342);
#310=AXIS2_PLACEMENT_3D('',#454,#344,#345);
#311=AXIS2_PLACEMENT_3D('',#458,#347,#348);
#312=AXIS2_PLACEMENT_3D('',#460,#350,#351);
#313=AXIS2_PLACEMENT_3D('',#465,#354,#355);
#314=AXIS2_PLACEMENT_3D('',#466,#356,#357);
#315=AXIS2_PLACEMENT_3D('',#469,#359,#360);
#316=AXIS2_PLACEMENT_3D('',#470,#361,#362);
#317=AXIS2_PLACEMENT_3D('',#475,#364,#365);
#318=AXIS2_PLACEMENT_3D('',#484,#371,#372);
#319=AXIS2_PLACEMENT_3D('',#488,#375,#376);
#320=AXIS2_PLACEMENT_3D('',#489,#377,#378);
#321=AXIS2_PLACEMENT_3D('',#490,#379,#380);
#322=AXIS2_PLACEMENT_3D('',#494,#383,#384);
#323=AXIS2_PLACEMENT_3D('',#498,#387,#388);
#324=AXIS2_PLACEMENT_3D('',#502,#391,#392);
#325=AXIS2_PLACEMENT_3D('',#506,#395,#396);
#326=AXIS2_PLACEMENT_3D('',#508,#398,#399);
#327=AXIS2_PLACEMENT_3D('',#509,#400,#401);
#328=AXIS2_PLACEMENT_3D('',#512,#402,#403);
#329=DIRECTION('axis',(0.,0.,1.));
#330=DIRECTION('refdir',(1.,0.,0.));
#331=DIRECTION('center_axis',(1.,0.,0.));
#332=DIRECTION('ref_axis',(0.,-1.,0.));
#333=DIRECTION('center_axis',(0.,-1.,0.));
#334=DIRECTION('ref_axis',(0.,0.,-1.));
#335=DIRECTION('center_axis',(0.,0.,-1.));
#336=DIRECTION('ref_axis',(0.,1.,0.));
#337=DIRECTION('center_axis',(0.,-1.,0.));
#338=DIRECTION('ref_axis',(0.,0.,-1.));
#339=DIRECTION('center_axis',(0.,0.,-1.));
#340=DIRECTION('ref_axis',(0.,1.,0.));
#341=DIRECTION('center_axis',(0.,0.,1.));
#342=DIRECTION('ref_axis',(0.925264915064908,0.379321548227792,0.));
#343=DIRECTION('',(0.,0.,1.));
#344=DIRECTION('center_axis',(0.,0.,1.));
#345=DIRECTION('ref_axis',(0.925264915064908,0.379321548227792,0.));
#346=DIRECTION('',(0.,0.,1.));
#347=DIRECTION('center_axis',(0.,0.,-1.));
#348=DIRECTION('ref_axis',(0.925264915064908,0.379321548227792,0.));
#349=DIRECTION('',(0.,0.,1.));
#350=DIRECTION('center_axis',(0.,1.,0.));
#351=DIRECTION('ref_axis',(-1.,0.,0.));
#352=DIRECTION('',(0.,0.,1.));
#353=DIRECTION('',(-1.,0.,0.));
#354=DIRECTION('center_axis',(0.,-1.,0.));
#355=DIRECTION('ref_axis',(1.,0.,0.));
#356=DIRECTION('center_axis',(0.,1.,0.));
#357=DIRECTION('ref_axis',(1.,0.,0.));
#358=DIRECTION('',(0.,-1.,0.));
#359=DIRECTION('center_axis',(0.,1.,0.));
#360=DIRECTION('ref_axis',(1.,0.,0.));
#361=DIRECTION('center_axis',(0.,0.,1.));
#362=DIRECTION('ref_axis',(1.,0.,0.));
#363=DIRECTION('',(-1.,-1.34840617207285E-15,0.));
#364=DIRECTION('center_axis',(0.,0.,-1.));
#365=DIRECTION('ref_axis',(-0.591931581731574,0.805988214894459,0.));
#366=DIRECTION('',(1.,0.,0.));
#367=DIRECTION('',(-1.,1.34840617207285E-15,0.));
#368=DIRECTION('',(-6.9388939039072E-16,-1.,0.));
#369=DIRECTION('',(-1.,0.,0.));
#370=DIRECTION('',(-6.9388939039072E-16,1.,0.));
#371=DIRECTION('center_axis',(0.,0.,1.));
#372=DIRECTION('ref_axis',(-0.591931581731574,0.805988214894459,0.));
#373=DIRECTION('',(0.,0.,1.));
#374=DIRECTION('',(0.,0.,-1.));
#375=DIRECTION('center_axis',(0.,0.,1.));
#376=DIRECTION('ref_axis',(-0.591931581731574,0.805988214894459,0.));
#377=DIRECTION('center_axis',(0.,1.,0.));
#378=DIRECTION('ref_axis',(-1.,0.,0.));
#379=DIRECTION('center_axis',(-1.34840617207285E-15,-1.,0.));
#380=DIRECTION('ref_axis',(1.,-1.34840617207285E-15,0.));
#381=DIRECTION('',(1.,-1.34840617207285E-15,0.));
#382=DIRECTION('',(0.,0.,1.));
#383=DIRECTION('center_axis',(1.,-6.9388939039072E-16,0.));
#384=DIRECTION('ref_axis',(6.9388939039072E-16,1.,0.));
#385=DIRECTION('',(6.9388939039072E-16,1.,0.));
#386=DIRECTION('',(0.,0.,1.));
#387=DIRECTION('center_axis',(0.,-1.,0.));
#388=DIRECTION('ref_axis',(1.,0.,0.));
#389=DIRECTION('',(1.,0.,0.));
#390=DIRECTION('',(0.,0.,1.));
#391=DIRECTION('center_axis',(-1.,-6.9388939039072E-16,0.));
#392=DIRECTION('ref_axis',(6.9388939039072E-16,-1.,0.));
#393=DIRECTION('',(6.9388939039072E-16,-1.,0.));
#394=DIRECTION('',(0.,0.,1.));
#395=DIRECTION('center_axis',(1.34840617207285E-15,-1.,0.));
#396=DIRECTION('ref_axis',(1.,1.34840617207285E-15,0.));
#397=DIRECTION('',(1.,1.34840617207285E-15,0.));
#398=DIRECTION('center_axis',(0.,0.,1.));
#399=DIRECTION('ref_axis',(1.,0.,0.));
#400=DIRECTION('center_axis',(1.,0.,0.));
#401=DIRECTION('ref_axis',(0.,-1.,0.));
#402=DIRECTION('center_axis',(0.,0.,1.));
#403=DIRECTION('ref_axis',(0.,1.,0.));
#404=CARTESIAN_POINT('',(0.,0.,0.));
#405=CARTESIAN_POINT('Origin',(0.,5.6,-6.));
#406=CARTESIAN_POINT('',(-2.,6.4,-4.73114224595505));
#407=CARTESIAN_POINT('',(-2.45938793715605,6.04878834050285,-6.));
#408=CARTESIAN_POINT('Ctrl Pts',(-2.,6.4,-4.73114224595505));
#409=CARTESIAN_POINT('Ctrl Pts',(-2.03569957312511,6.37378162062846,-4.77088227401749));
#410=CARTESIAN_POINT('Ctrl Pts',(-2.06894290002886,6.34912135860188,-4.81200097670141));
#411=CARTESIAN_POINT('Ctrl Pts',(-2.20822315673964,6.24506156246811,-5.0008774901971));
#412=CARTESIAN_POINT('Ctrl Pts',(-2.30309908473333,6.17170679519793,-5.18452491792292));
#413=CARTESIAN_POINT('Ctrl Pts',(-2.42864970148003,6.07344586866319,-5.583318706671));
#414=CARTESIAN_POINT('Ctrl Pts',(-2.45938793715605,6.04878834050285,-5.79850628066903));
#415=CARTESIAN_POINT('Ctrl Pts',(-2.45938793715605,6.04878834050285,-6.));
#416=CARTESIAN_POINT('',(2.,6.4,-4.73114224595505));
#417=CARTESIAN_POINT('Origin',(0.,6.4,-6.));
#418=CARTESIAN_POINT('',(2.45938793715605,6.04878834050285,-6.));
#419=CARTESIAN_POINT('Ctrl Pts',(2.45938793715605,6.04878834050285,-6.));
#420=CARTESIAN_POINT('Ctrl Pts',(2.45938793715605,6.04878834050285,-5.79850628066903));
#421=CARTESIAN_POINT('Ctrl Pts',(2.42864970148003,6.07344586866318,-5.583318706671));
#422=CARTESIAN_POINT('Ctrl Pts',(2.30309908473333,6.17170679519792,-5.18452491792292));
#423=CARTESIAN_POINT('Ctrl Pts',(2.20822315673964,6.24506156246811,-5.0008774901971));
#424=CARTESIAN_POINT('Ctrl Pts',(2.06894290002885,6.34912135860188,-4.81200097670141));
#425=CARTESIAN_POINT('Ctrl Pts',(2.03569957312511,6.37378162062846,-4.77088227401749));
#426=CARTESIAN_POINT('Ctrl Pts',(2.,6.4,-4.73114224595505));
#427=CARTESIAN_POINT('',(2.5,5.6,-6.));
#428=CARTESIAN_POINT('Origin',(0.,5.6,-6.));
#429=CARTESIAN_POINT('',(2.,6.4,-7.26885775404495));
#430=CARTESIAN_POINT('Ctrl Pts',(2.,6.4,-7.26885775404496));
#431=CARTESIAN_POINT('Ctrl Pts',(2.03569957312511,6.37378162062846,-7.22911772598251));
#432=CARTESIAN_POINT('Ctrl Pts',(2.06894290002885,6.34912135860188,-7.18799902329859));
#433=CARTESIAN_POINT('Ctrl Pts',(2.20822315673964,6.24506156246811,-6.9991225098029));
#434=CARTESIAN_POINT('Ctrl Pts',(2.30309908473333,6.17170679519792,-6.81547508207708));
#435=CARTESIAN_POINT('Ctrl Pts',(2.42864970148003,6.07344586866318,-6.416681293329));
#436=CARTESIAN_POINT('Ctrl Pts',(2.45938793715605,6.04878834050285,-6.20149371933097));
#437=CARTESIAN_POINT('Ctrl Pts',(2.45938793715605,6.04878834050285,-6.));
#438=CARTESIAN_POINT('',(-2.,6.4,-7.26885775404495));
#439=CARTESIAN_POINT('Origin',(0.,6.4,-6.));
#440=CARTESIAN_POINT('Ctrl Pts',(-2.45938793715605,6.04878834050285,-6.));
#441=CARTESIAN_POINT('Ctrl Pts',(-2.45938793715605,6.04878834050285,-6.20149371933097));
#442=CARTESIAN_POINT('Ctrl Pts',(-2.42864970148003,6.07344586866319,-6.416681293329));
#443=CARTESIAN_POINT('Ctrl Pts',(-2.30309908473333,6.17170679519793,-6.81547508207708));
#444=CARTESIAN_POINT('Ctrl Pts',(-2.20822315673964,6.24506156246811,-6.9991225098029));
#445=CARTESIAN_POINT('Ctrl Pts',(-2.06894290002886,6.34912135860188,-7.18799902329859));
#446=CARTESIAN_POINT('Ctrl Pts',(-2.03569957312511,6.37378162062846,-7.22911772598251));
#447=CARTESIAN_POINT('Ctrl Pts',(-2.,6.4,-7.26885775404495));
#448=CARTESIAN_POINT('',(-2.5,5.6,-6.));
#449=CARTESIAN_POINT('Origin',(0.,5.6,-6.));
#450=CARTESIAN_POINT('Origin',(-6.87897372597361,-5.68982322341688,0.));
#451=CARTESIAN_POINT('',(2.,6.4,11.));
#452=CARTESIAN_POINT('',(2.,6.4,0.));
#453=CARTESIAN_POINT('',(7.,4.48899944359727E-16,11.));
#454=CARTESIAN_POINT('Origin',(-6.87897372597361,-5.68982322341688,11.));
#455=CARTESIAN_POINT('',(7.,4.48899944359727E-16,-11.));
#456=CARTESIAN_POINT('',(7.,4.48899944359727E-16,0.));
#457=CARTESIAN_POINT('',(2.,6.4,-11.));
#458=CARTESIAN_POINT('Origin',(-6.87897372597361,-5.68982322341688,-11.));
#459=CARTESIAN_POINT('',(2.,6.4,0.));
#460=CARTESIAN_POINT('Origin',(2.,6.4,0.));
#461=CARTESIAN_POINT('',(-2.,6.4,11.));
#462=CARTESIAN_POINT('',(-2.,6.4,0.));
#463=CARTESIAN_POINT('',(2.,6.4,11.));
#464=CARTESIAN_POINT('',(-1.621,6.4,3.5));
#465=CARTESIAN_POINT('Origin',(0.,6.4,3.5));
#466=CARTESIAN_POINT('Origin',(0.,-20.6525414702575,3.5));
#467=CARTESIAN_POINT('',(-1.621,-0.799999999999998,3.5));
#468=CARTESIAN_POINT('',(-1.621,-20.6525414702575,3.5));
#469=CARTESIAN_POINT('Origin',(0.,-0.799999999999998,3.5));
#470=CARTESIAN_POINT('Origin',(0.,2.8,-11.));
#471=CARTESIAN_POINT('',(-3.90000000000001,4.62895907778554E-15,-11.));
#472=CARTESIAN_POINT('',(-7.,4.48899944359727E-16,-11.));
#473=CARTESIAN_POINT('',(-7.,4.48899944359727E-16,-11.));
#474=CARTESIAN_POINT('',(-2.,6.4,-11.));
#475=CARTESIAN_POINT('Origin',(6.87897372597361,-5.68982322341688,-11.));
#476=CARTESIAN_POINT('',(2.,6.4,-11.));
#477=CARTESIAN_POINT('',(3.90000000000001,4.62895907778554E-15,-11.));
#478=CARTESIAN_POINT('',(3.90000000000001,4.62895907778554E-15,-11.));
#479=CARTESIAN_POINT('',(3.9,-0.799999999999999,-11.));
#480=CARTESIAN_POINT('',(3.90000000000001,-0.799999999999999,-11.));
#481=CARTESIAN_POINT('',(-3.90000000000001,-0.799999999999999,-11.));
#482=CARTESIAN_POINT('',(-3.90000000000001,-0.799999999999999,-11.));
#483=CARTESIAN_POINT('',(-3.90000000000001,4.62895907778554E-15,-11.));
#484=CARTESIAN_POINT('Origin',(6.87897372597361,-5.68982322341688,0.));
#485=CARTESIAN_POINT('',(-2.,6.4,0.));
#486=CARTESIAN_POINT('',(-7.,4.48899944359727E-16,11.));
#487=CARTESIAN_POINT('',(-7.,4.48899944359727E-16,0.));
#488=CARTESIAN_POINT('Origin',(6.87897372597361,-5.68982322341688,11.));
#489=CARTESIAN_POINT('Origin',(2.,6.4,0.));
#490=CARTESIAN_POINT('Origin',(3.90000000000001,4.62895907778554E-15,0.));
#491=CARTESIAN_POINT('',(3.90000000000001,4.62895907778554E-15,11.));
#492=CARTESIAN_POINT('',(3.90000000000001,4.62895907778554E-15,11.));
#493=CARTESIAN_POINT('',(3.90000000000001,4.62895907778554E-15,0.));
#494=CARTESIAN_POINT('Origin',(3.90000000000001,-0.799999999999999,0.));
#495=CARTESIAN_POINT('',(3.9,-0.799999999999999,11.));
#496=CARTESIAN_POINT('',(3.90000000000001,-0.799999999999999,11.));
#497=CARTESIAN_POINT('',(3.90000000000001,-0.799999999999999,0.));
#498=CARTESIAN_POINT('Origin',(-3.90000000000001,-0.799999999999999,0.));
#499=CARTESIAN_POINT('',(-3.90000000000001,-0.799999999999999,11.));
#500=CARTESIAN_POINT('',(-3.90000000000001,-0.799999999999999,11.));
#501=CARTESIAN_POINT('',(-3.90000000000001,-0.799999999999999,0.));
#502=CARTESIAN_POINT('Origin',(-3.90000000000001,4.62895907778554E-15,0.));
#503=CARTESIAN_POINT('',(-3.90000000000001,4.62895907778554E-15,11.));
#504=CARTESIAN_POINT('',(-3.90000000000001,4.62895907778554E-15,11.));
#505=CARTESIAN_POINT('',(-3.90000000000001,4.62895907778554E-15,0.));
#506=CARTESIAN_POINT('Origin',(-7.,4.48899944359727E-16,0.));
#507=CARTESIAN_POINT('',(-7.,4.48899944359727E-16,11.));
#508=CARTESIAN_POINT('Origin',(0.,2.8,11.));
#509=CARTESIAN_POINT('Origin',(0.,5.6,-6.));
#510=CARTESIAN_POINT('',(2.5,5.6,-6.));
#511=CARTESIAN_POINT('',(-2.5,5.6,-6.));
#512=CARTESIAN_POINT('Origin',(0.,5.6,-6.));
#513=UNCERTAINTY_MEASURE_WITH_UNIT(LENGTH_MEASURE(0.01),#517,
'DISTANCE_ACCURACY_VALUE',
'Maximum model space distance between geometric entities at asserted c
onnectivities');
#514=UNCERTAINTY_MEASURE_WITH_UNIT(LENGTH_MEASURE(0.01),#517,
'DISTANCE_ACCURACY_VALUE',
'Maximum model space distance between geometric entities at asserted c
onnectivities');
#515=(
GEOMETRIC_REPRESENTATION_CONTEXT(3)
GLOBAL_UNCERTAINTY_ASSIGNED_CONTEXT((#513))
GLOBAL_UNIT_ASSIGNED_CONTEXT((#517,#519,#520))
REPRESENTATION_CONTEXT('','3D')
);
#516=(
GEOMETRIC_REPRESENTATION_CONTEXT(3)
GLOBAL_UNCERTAINTY_ASSIGNED_CONTEXT((#514))
GLOBAL_UNIT_ASSIGNED_CONTEXT((#517,#519,#520))
REPRESENTATION_CONTEXT('','3D')
);
#517=(
LENGTH_UNIT()
NAMED_UNIT(*)
SI_UNIT(.MILLI.,.METRE.)
);
#518=(
LENGTH_UNIT()
NAMED_UNIT(*)
SI_UNIT(.CENTI.,.METRE.)
);
#519=(
NAMED_UNIT(*)
PLANE_ANGLE_UNIT()
SI_UNIT($,.RADIAN.)
);
#520=(
NAMED_UNIT(*)
SI_UNIT($,.STERADIAN.)
SOLID_ANGLE_UNIT()
);
#521=SHAPE_DEFINITION_REPRESENTATION(#522,#523);
#522=PRODUCT_DEFINITION_SHAPE('',$,#525);
#523=SHAPE_REPRESENTATION('',(#303),#515);
#524=PRODUCT_DEFINITION_CONTEXT('part definition',#529,'design');
#525=PRODUCT_DEFINITION('210204','210204',#526,#524);
#526=PRODUCT_DEFINITION_FORMATION('',$,#531);
#527=PRODUCT_RELATED_PRODUCT_CATEGORY('210204','210204',(#531));
#528=APPLICATION_PROTOCOL_DEFINITION('international standard',
'automotive_design',2009,#529);
#529=APPLICATION_CONTEXT(
'Core Data for Automotive Mechanical Design Process');
#530=PRODUCT_CONTEXT('part definition',#529,'mechanical');
#531=PRODUCT('210204','210204',
'Matice M4 s kuli\X2\010D\X0\kou pro serii 40 dr\X\E1\X2\017E\X0\ka 8,
 \X2\0159\X0\ada 17',(#530));
#532=PRESENTATION_STYLE_ASSIGNMENT((#533));
#533=SURFACE_STYLE_USAGE(.BOTH.,#536);
#534=SURFACE_STYLE_RENDERING_WITH_PROPERTIES($,#540,(#535));
#535=SURFACE_STYLE_TRANSPARENT(0.);
#536=SURFACE_SIDE_STYLE('',(#537,#534));
#537=SURFACE_STYLE_FILL_AREA(#538);
#538=FILL_AREA_STYLE('',(#539));
#539=FILL_AREA_STYLE_COLOUR('',#540);
#540=COLOUR_RGB('',0.87843137254902,0.874509803921569,0.858823529411765);
ENDSEC;
END-ISO-10303-21;
