ISO-10303-21;
HEADER;
/* Generated by software containing ST-Developer
 * from STEP Tools, Inc. (www.steptools.com) 
 */

FILE_DESCRIPTION(
/* description */ (
'Matice M5 s kuli\X2\010D\X0\kou pro serii 40 dr\X\E1\X2\017E\X0\ka 8,
 \X2\0159\X0\ada 17'),
/* implementation_level */ '2;1');

FILE_NAME(
/* name */ '210205.stp',
/* time_stamp */ '2024-10-15T16:15:03+02:00',
/* author */ ('jiri.spacek'),
/* organization */ ('Alutec K&K'),
/* preprocessor_version */ 'ST-DEVELOPER v20',
/* originating_system */ 'Autodesk Inventor 2024',
/* authorisation */ '');

FILE_SCHEMA (('AUTOMOTIVE_DESIGN { 1 0 10303 214 3 1 1 }'));
ENDSEC;

DATA;
#10=MECHANICAL_DESIGN_GEOMETRIC_PRESENTATION_REPRESENTATION('',(#13,#14),
#578);
#11=SHAPE_REPRESENTATION_RELATIONSHIP('SRR','None',#585,#12);
#12=ADVANCED_BREP_SHAPE_REPRESENTATION('',(#15,#16),#577);
#13=STYLED_ITEM('',(#594),#15);
#14=STYLED_ITEM('',(#594),#16);
#15=MANIFOLD_SOLID_BREP('T\X2\011B\X0\leso1',#312);
#16=MANIFOLD_SOLID_BREP('T\X2\011B\X0\leso2',#313);
#17=FACE_BOUND('',#107,.T.);
#18=PLANE('',#344);
#19=PLANE('',#349);
#20=PLANE('',#350);
#21=PLANE('',#354);
#22=PLANE('',#355);
#23=PLANE('',#356);
#24=PLANE('',#357);
#25=PLANE('',#358);
#26=PLANE('',#359);
#27=PLANE('',#360);
#28=LINE('',#492,#53);
#29=LINE('',#501,#54);
#30=LINE('',#505,#55);
#31=LINE('',#508,#56);
#32=LINE('',#511,#57);
#33=LINE('',#520,#58);
#34=LINE('',#530,#59);
#35=LINE('',#531,#60);
#36=LINE('',#535,#61);
#37=LINE('',#538,#62);
#38=LINE('',#540,#63);
#39=LINE('',#542,#64);
#40=LINE('',#544,#65);
#41=LINE('',#545,#66);
#42=LINE('',#547,#67);
#43=LINE('',#549,#68);
#44=LINE('',#554,#69);
#45=LINE('',#555,#70);
#46=LINE('',#558,#71);
#47=LINE('',#559,#72);
#48=LINE('',#562,#73);
#49=LINE('',#563,#74);
#50=LINE('',#566,#75);
#51=LINE('',#567,#76);
#52=LINE('',#569,#77);
#53=VECTOR('',#377,10.);
#54=VECTOR('',#378,10.);
#55=VECTOR('',#381,10.);
#56=VECTOR('',#384,10.);
#57=VECTOR('',#387,10.);
#58=VECTOR('',#392,2.067);
#59=VECTOR('',#399,10.);
#60=VECTOR('',#400,10.);
#61=VECTOR('',#403,10.);
#62=VECTOR('',#406,10.);
#63=VECTOR('',#407,10.);
#64=VECTOR('',#408,10.);
#65=VECTOR('',#409,10.);
#66=VECTOR('',#410,10.);
#67=VECTOR('',#413,10.);
#68=VECTOR('',#414,10.);
#69=VECTOR('',#421,10.);
#70=VECTOR('',#422,10.);
#71=VECTOR('',#425,10.);
#72=VECTOR('',#426,10.);
#73=VECTOR('',#429,10.);
#74=VECTOR('',#430,10.);
#75=VECTOR('',#433,10.);
#76=VECTOR('',#434,10.);
#77=VECTOR('',#437,10.);
#78=CYLINDRICAL_SURFACE('',#341,15.);
#79=CYLINDRICAL_SURFACE('',#346,2.067);
#80=CYLINDRICAL_SURFACE('',#352,15.);
#81=FACE_OUTER_BOUND('',#96,.T.);
#82=FACE_OUTER_BOUND('',#97,.T.);
#83=FACE_OUTER_BOUND('',#98,.T.);
#84=FACE_OUTER_BOUND('',#99,.T.);
#85=FACE_OUTER_BOUND('',#100,.T.);
#86=FACE_OUTER_BOUND('',#101,.T.);
#87=FACE_OUTER_BOUND('',#102,.T.);
#88=FACE_OUTER_BOUND('',#103,.T.);
#89=FACE_OUTER_BOUND('',#104,.T.);
#90=FACE_OUTER_BOUND('',#105,.T.);
#91=FACE_OUTER_BOUND('',#106,.T.);
#92=FACE_OUTER_BOUND('',#108,.T.);
#93=FACE_OUTER_BOUND('',#109,.T.);
#94=FACE_OUTER_BOUND('',#110,.T.);
#95=FACE_OUTER_BOUND('',#111,.T.);
#96=EDGE_LOOP('',(#207,#208,#209,#210,#211,#212,#213,#214,#215,#216));
#97=EDGE_LOOP('',(#217,#218,#219,#220,#221,#222,#223,#224,#225));
#98=EDGE_LOOP('',(#226,#227,#228,#229));
#99=EDGE_LOOP('',(#230,#231,#232,#233,#234,#235,#236,#237));
#100=EDGE_LOOP('',(#238,#239,#240,#241));
#101=EDGE_LOOP('',(#242,#243,#244,#245,#246,#247,#248,#249));
#102=EDGE_LOOP('',(#250,#251,#252,#253,#254,#255,#256,#257,#258,#259));
#103=EDGE_LOOP('',(#260,#261,#262,#263));
#104=EDGE_LOOP('',(#264,#265,#266,#267));
#105=EDGE_LOOP('',(#268,#269,#270,#271));
#106=EDGE_LOOP('',(#272,#273,#274,#275));
#107=EDGE_LOOP('',(#276));
#108=EDGE_LOOP('',(#277,#278,#279,#280));
#109=EDGE_LOOP('',(#281,#282,#283,#284));
#110=EDGE_LOOP('',(#285,#286,#287,#288,#289,#290,#291,#292));
#111=EDGE_LOOP('',(#293,#294));
#112=CIRCLE('',#337,2.3685438564654);
#113=CIRCLE('',#338,2.5);
#114=CIRCLE('',#339,2.3685438564654);
#115=CIRCLE('',#340,2.5);
#116=CIRCLE('',#342,15.);
#117=CIRCLE('',#343,15.);
#118=CIRCLE('',#345,2.067);
#119=CIRCLE('',#347,2.067);
#120=CIRCLE('',#348,2.067);
#121=CIRCLE('',#351,15.);
#122=CIRCLE('',#353,15.);
#123=CIRCLE('',#362,2.5);
#124=B_SPLINE_CURVE_WITH_KNOTS('',3,(#448,#449,#450,#451,#452,#453,#454,
#455),.UNSPECIFIED.,.F.,.F.,(4,2,2,4),(-0.137462135034752,-0.120896231598584,
-0.060448115799292,0.),.UNSPECIFIED.);
#125=B_SPLINE_CURVE_WITH_KNOTS('',3,(#459,#460,#461,#462,#463,#464,#465,
#466),.UNSPECIFIED.,.F.,.F.,(4,2,2,4),(0.541387414188578,0.601835529987871,
0.662283645787163,0.678849549223331),.UNSPECIFIED.);
#126=B_SPLINE_CURVE_WITH_KNOTS('',3,(#470,#471,#472,#473,#474,#475,#476,
#477),.UNSPECIFIED.,.F.,.F.,(4,2,2,4),(0.403925279153826,0.420491182589994,
0.480939298389287,0.541387414188578),.UNSPECIFIED.);
#127=B_SPLINE_CURVE_WITH_KNOTS('',3,(#480,#481,#482,#483,#484,#485,#486,
#487),.UNSPECIFIED.,.F.,.F.,(4,2,2,4),(0.,0.0604481157992919,0.120896231598584,
0.137462135034752),.UNSPECIFIED.);
#128=B_SPLINE_CURVE_WITH_KNOTS('',3,(#494,#495,#496,#497,#498,#499),
 .UNSPECIFIED.,.F.,.F.,(4,2,4),(0.613196063858545,0.664946585886462,0.716697107914379),
 .UNSPECIFIED.);
#129=B_SPLINE_CURVE_WITH_KNOTS('',3,(#515,#516,#517,#518),.UNSPECIFIED.,
 .F.,.F.,(4,4),(0.,0.051750522027916),.UNSPECIFIED.);
#130=B_SPLINE_CURVE_WITH_KNOTS('',3,(#523,#524,#525,#526),.UNSPECIFIED.,
 .F.,.F.,(4,4),(-0.0517505213153993,0.),.UNSPECIFIED.);
#131=VERTEX_POINT('',#446);
#132=VERTEX_POINT('',#447);
#133=VERTEX_POINT('',#456);
#134=VERTEX_POINT('',#458);
#135=VERTEX_POINT('',#467);
#136=VERTEX_POINT('',#469);
#137=VERTEX_POINT('',#478);
#138=VERTEX_POINT('',#488);
#139=VERTEX_POINT('',#491);
#140=VERTEX_POINT('',#493);
#141=VERTEX_POINT('',#500);
#142=VERTEX_POINT('',#502);
#143=VERTEX_POINT('',#504);
#144=VERTEX_POINT('',#506);
#145=VERTEX_POINT('',#510);
#146=VERTEX_POINT('',#514);
#147=VERTEX_POINT('',#519);
#148=VERTEX_POINT('',#522);
#149=VERTEX_POINT('',#529);
#150=VERTEX_POINT('',#533);
#151=VERTEX_POINT('',#534);
#152=VERTEX_POINT('',#536);
#153=VERTEX_POINT('',#539);
#154=VERTEX_POINT('',#541);
#155=VERTEX_POINT('',#543);
#156=VERTEX_POINT('',#548);
#157=VERTEX_POINT('',#553);
#158=VERTEX_POINT('',#557);
#159=VERTEX_POINT('',#561);
#160=VERTEX_POINT('',#565);
#161=VERTEX_POINT('',#572);
#162=VERTEX_POINT('',#573);
#163=EDGE_CURVE('',#131,#132,#124,.T.);
#164=EDGE_CURVE('',#133,#131,#112,.T.);
#165=EDGE_CURVE('',#134,#133,#125,.T.);
#166=EDGE_CURVE('',#134,#135,#113,.T.);
#167=EDGE_CURVE('',#136,#134,#126,.T.);
#168=EDGE_CURVE('',#137,#136,#114,.T.);
#169=EDGE_CURVE('',#132,#137,#127,.T.);
#170=EDGE_CURVE('',#138,#132,#115,.T.);
#171=EDGE_CURVE('',#133,#139,#28,.T.);
#172=EDGE_CURVE('',#139,#140,#128,.T.);
#173=EDGE_CURVE('',#140,#141,#29,.T.);
#174=EDGE_CURVE('',#142,#141,#116,.T.);
#175=EDGE_CURVE('',#143,#142,#30,.T.);
#176=EDGE_CURVE('',#144,#143,#117,.T.);
#177=EDGE_CURVE('',#144,#136,#31,.T.);
#178=EDGE_CURVE('',#131,#145,#32,.T.);
#179=EDGE_CURVE('',#145,#139,#118,.T.);
#180=EDGE_CURVE('',#146,#145,#129,.T.);
#181=EDGE_CURVE('',#146,#147,#33,.T.);
#182=EDGE_CURVE('',#147,#147,#119,.T.);
#183=EDGE_CURVE('',#148,#146,#130,.T.);
#184=EDGE_CURVE('',#140,#148,#120,.T.);
#185=EDGE_CURVE('',#148,#149,#34,.T.);
#186=EDGE_CURVE('',#141,#149,#35,.T.);
#187=EDGE_CURVE('',#150,#151,#36,.T.);
#188=EDGE_CURVE('',#151,#152,#121,.T.);
#189=EDGE_CURVE('',#152,#144,#37,.T.);
#190=EDGE_CURVE('',#143,#153,#38,.T.);
#191=EDGE_CURVE('',#153,#154,#39,.T.);
#192=EDGE_CURVE('',#154,#155,#40,.T.);
#193=EDGE_CURVE('',#155,#150,#41,.T.);
#194=EDGE_CURVE('',#152,#137,#42,.T.);
#195=EDGE_CURVE('',#156,#151,#43,.T.);
#196=EDGE_CURVE('',#149,#156,#122,.T.);
#197=EDGE_CURVE('',#157,#142,#44,.T.);
#198=EDGE_CURVE('',#153,#157,#45,.T.);
#199=EDGE_CURVE('',#158,#157,#46,.T.);
#200=EDGE_CURVE('',#154,#158,#47,.T.);
#201=EDGE_CURVE('',#159,#158,#48,.T.);
#202=EDGE_CURVE('',#155,#159,#49,.T.);
#203=EDGE_CURVE('',#160,#159,#50,.T.);
#204=EDGE_CURVE('',#150,#160,#51,.T.);
#205=EDGE_CURVE('',#156,#160,#52,.T.);
#206=EDGE_CURVE('',#161,#162,#123,.T.);
#207=ORIENTED_EDGE('',*,*,#163,.F.);
#208=ORIENTED_EDGE('',*,*,#164,.F.);
#209=ORIENTED_EDGE('',*,*,#165,.F.);
#210=ORIENTED_EDGE('',*,*,#166,.T.);
#211=ORIENTED_EDGE('',*,*,#166,.F.);
#212=ORIENTED_EDGE('',*,*,#167,.F.);
#213=ORIENTED_EDGE('',*,*,#168,.F.);
#214=ORIENTED_EDGE('',*,*,#169,.F.);
#215=ORIENTED_EDGE('',*,*,#170,.F.);
#216=ORIENTED_EDGE('',*,*,#170,.T.);
#217=ORIENTED_EDGE('',*,*,#167,.T.);
#218=ORIENTED_EDGE('',*,*,#165,.T.);
#219=ORIENTED_EDGE('',*,*,#171,.T.);
#220=ORIENTED_EDGE('',*,*,#172,.T.);
#221=ORIENTED_EDGE('',*,*,#173,.T.);
#222=ORIENTED_EDGE('',*,*,#174,.F.);
#223=ORIENTED_EDGE('',*,*,#175,.F.);
#224=ORIENTED_EDGE('',*,*,#176,.F.);
#225=ORIENTED_EDGE('',*,*,#177,.T.);
#226=ORIENTED_EDGE('',*,*,#164,.T.);
#227=ORIENTED_EDGE('',*,*,#178,.T.);
#228=ORIENTED_EDGE('',*,*,#179,.T.);
#229=ORIENTED_EDGE('',*,*,#171,.F.);
#230=ORIENTED_EDGE('',*,*,#172,.F.);
#231=ORIENTED_EDGE('',*,*,#179,.F.);
#232=ORIENTED_EDGE('',*,*,#180,.F.);
#233=ORIENTED_EDGE('',*,*,#181,.T.);
#234=ORIENTED_EDGE('',*,*,#182,.F.);
#235=ORIENTED_EDGE('',*,*,#181,.F.);
#236=ORIENTED_EDGE('',*,*,#183,.F.);
#237=ORIENTED_EDGE('',*,*,#184,.F.);
#238=ORIENTED_EDGE('',*,*,#184,.T.);
#239=ORIENTED_EDGE('',*,*,#185,.T.);
#240=ORIENTED_EDGE('',*,*,#186,.F.);
#241=ORIENTED_EDGE('',*,*,#173,.F.);
#242=ORIENTED_EDGE('',*,*,#187,.T.);
#243=ORIENTED_EDGE('',*,*,#188,.T.);
#244=ORIENTED_EDGE('',*,*,#189,.T.);
#245=ORIENTED_EDGE('',*,*,#176,.T.);
#246=ORIENTED_EDGE('',*,*,#190,.T.);
#247=ORIENTED_EDGE('',*,*,#191,.T.);
#248=ORIENTED_EDGE('',*,*,#192,.T.);
#249=ORIENTED_EDGE('',*,*,#193,.T.);
#250=ORIENTED_EDGE('',*,*,#163,.T.);
#251=ORIENTED_EDGE('',*,*,#169,.T.);
#252=ORIENTED_EDGE('',*,*,#194,.F.);
#253=ORIENTED_EDGE('',*,*,#188,.F.);
#254=ORIENTED_EDGE('',*,*,#195,.F.);
#255=ORIENTED_EDGE('',*,*,#196,.F.);
#256=ORIENTED_EDGE('',*,*,#185,.F.);
#257=ORIENTED_EDGE('',*,*,#183,.T.);
#258=ORIENTED_EDGE('',*,*,#180,.T.);
#259=ORIENTED_EDGE('',*,*,#178,.F.);
#260=ORIENTED_EDGE('',*,*,#168,.T.);
#261=ORIENTED_EDGE('',*,*,#177,.F.);
#262=ORIENTED_EDGE('',*,*,#189,.F.);
#263=ORIENTED_EDGE('',*,*,#194,.T.);
#264=ORIENTED_EDGE('',*,*,#175,.T.);
#265=ORIENTED_EDGE('',*,*,#197,.F.);
#266=ORIENTED_EDGE('',*,*,#198,.F.);
#267=ORIENTED_EDGE('',*,*,#190,.F.);
#268=ORIENTED_EDGE('',*,*,#198,.T.);
#269=ORIENTED_EDGE('',*,*,#199,.F.);
#270=ORIENTED_EDGE('',*,*,#200,.F.);
#271=ORIENTED_EDGE('',*,*,#191,.F.);
#272=ORIENTED_EDGE('',*,*,#200,.T.);
#273=ORIENTED_EDGE('',*,*,#201,.F.);
#274=ORIENTED_EDGE('',*,*,#202,.F.);
#275=ORIENTED_EDGE('',*,*,#192,.F.);
#276=ORIENTED_EDGE('',*,*,#182,.T.);
#277=ORIENTED_EDGE('',*,*,#202,.T.);
#278=ORIENTED_EDGE('',*,*,#203,.F.);
#279=ORIENTED_EDGE('',*,*,#204,.F.);
#280=ORIENTED_EDGE('',*,*,#193,.F.);
#281=ORIENTED_EDGE('',*,*,#204,.T.);
#282=ORIENTED_EDGE('',*,*,#205,.F.);
#283=ORIENTED_EDGE('',*,*,#195,.T.);
#284=ORIENTED_EDGE('',*,*,#187,.F.);
#285=ORIENTED_EDGE('',*,*,#205,.T.);
#286=ORIENTED_EDGE('',*,*,#203,.T.);
#287=ORIENTED_EDGE('',*,*,#201,.T.);
#288=ORIENTED_EDGE('',*,*,#199,.T.);
#289=ORIENTED_EDGE('',*,*,#197,.T.);
#290=ORIENTED_EDGE('',*,*,#174,.T.);
#291=ORIENTED_EDGE('',*,*,#186,.T.);
#292=ORIENTED_EDGE('',*,*,#196,.T.);
#293=ORIENTED_EDGE('',*,*,#206,.T.);
#294=ORIENTED_EDGE('',*,*,#206,.F.);
#295=SPHERICAL_SURFACE('',#336,2.5);
#296=SPHERICAL_SURFACE('',#361,2.5);
#297=ADVANCED_FACE('',(#81),#295,.F.);
#298=ADVANCED_FACE('',(#82),#78,.T.);
#299=ADVANCED_FACE('',(#83),#18,.T.);
#300=ADVANCED_FACE('',(#84),#79,.F.);
#301=ADVANCED_FACE('',(#85),#19,.T.);
#302=ADVANCED_FACE('',(#86),#20,.F.);
#303=ADVANCED_FACE('',(#87),#80,.T.);
#304=ADVANCED_FACE('',(#88),#21,.T.);
#305=ADVANCED_FACE('',(#89),#22,.T.);
#306=ADVANCED_FACE('',(#90),#23,.T.);
#307=ADVANCED_FACE('',(#91,#17),#24,.T.);
#308=ADVANCED_FACE('',(#92),#25,.T.);
#309=ADVANCED_FACE('',(#93),#26,.T.);
#310=ADVANCED_FACE('',(#94),#27,.T.);
#311=ADVANCED_FACE('',(#95),#296,.T.);
#312=CLOSED_SHELL('',(#297,#298,#299,#300,#301,#302,#303,#304,#305,#306,
#307,#308,#309,#310));
#313=CLOSED_SHELL('',(#311));
#314=DERIVED_UNIT_ELEMENT(#317,1.);
#315=DERIVED_UNIT_ELEMENT(#580,-3.);
#316=DIMENSIONAL_EXPONENTS(0.,1.,0.,0.,0.,0.,0.);
#317=(
CONVERSION_BASED_UNIT('gram',#319)
MASS_UNIT()
NAMED_UNIT(#316)
);
#318=(
MASS_UNIT()
NAMED_UNIT(*)
SI_UNIT(.KILO.,.GRAM.)
);
#319=MASS_MEASURE_WITH_UNIT(MASS_MEASURE(0.001),#318);
#320=DERIVED_UNIT((#314,#315));
#321=MEASURE_REPRESENTATION_ITEM('density measure',
POSITIVE_RATIO_MEASURE(7.85),#320);
#322=PROPERTY_DEFINITION_REPRESENTATION(#327,#324);
#323=PROPERTY_DEFINITION_REPRESENTATION(#328,#325);
#324=REPRESENTATION('material name',(#326),#577);
#325=REPRESENTATION('density',(#321),#577);
#326=DESCRIPTIVE_REPRESENTATION_ITEM('Ocel pozinkovan\X\E1',
'Ocel pozinkovan\X\E1');
#327=PROPERTY_DEFINITION('material property','material name',#587);
#328=PROPERTY_DEFINITION('material property','density of part',#587);
#329=DATE_TIME_ROLE('creation_date');
#330=APPLIED_DATE_AND_TIME_ASSIGNMENT(#331,#329,(#587));
#331=DATE_AND_TIME(#332,#333);
#332=CALENDAR_DATE(2024,9,10);
#333=LOCAL_TIME(0,0,0.,#334);
#334=COORDINATED_UNIVERSAL_TIME_OFFSET(0,0,.BEHIND.);
#335=AXIS2_PLACEMENT_3D('',#444,#363,#364);
#336=AXIS2_PLACEMENT_3D('',#445,#365,#366);
#337=AXIS2_PLACEMENT_3D('',#457,#367,#368);
#338=AXIS2_PLACEMENT_3D('',#468,#369,#370);
#339=AXIS2_PLACEMENT_3D('',#479,#371,#372);
#340=AXIS2_PLACEMENT_3D('',#489,#373,#374);
#341=AXIS2_PLACEMENT_3D('',#490,#375,#376);
#342=AXIS2_PLACEMENT_3D('',#503,#379,#380);
#343=AXIS2_PLACEMENT_3D('',#507,#382,#383);
#344=AXIS2_PLACEMENT_3D('',#509,#385,#386);
#345=AXIS2_PLACEMENT_3D('',#512,#388,#389);
#346=AXIS2_PLACEMENT_3D('',#513,#390,#391);
#347=AXIS2_PLACEMENT_3D('',#521,#393,#394);
#348=AXIS2_PLACEMENT_3D('',#527,#395,#396);
#349=AXIS2_PLACEMENT_3D('',#528,#397,#398);
#350=AXIS2_PLACEMENT_3D('',#532,#401,#402);
#351=AXIS2_PLACEMENT_3D('',#537,#404,#405);
#352=AXIS2_PLACEMENT_3D('',#546,#411,#412);
#353=AXIS2_PLACEMENT_3D('',#550,#415,#416);
#354=AXIS2_PLACEMENT_3D('',#551,#417,#418);
#355=AXIS2_PLACEMENT_3D('',#552,#419,#420);
#356=AXIS2_PLACEMENT_3D('',#556,#423,#424);
#357=AXIS2_PLACEMENT_3D('',#560,#427,#428);
#358=AXIS2_PLACEMENT_3D('',#564,#431,#432);
#359=AXIS2_PLACEMENT_3D('',#568,#435,#436);
#360=AXIS2_PLACEMENT_3D('',#570,#438,#439);
#361=AXIS2_PLACEMENT_3D('',#571,#440,#441);
#362=AXIS2_PLACEMENT_3D('',#574,#442,#443);
#363=DIRECTION('axis',(0.,0.,1.));
#364=DIRECTION('refdir',(1.,0.,0.));
#365=DIRECTION('center_axis',(1.,0.,0.));
#366=DIRECTION('ref_axis',(0.,-1.,0.));
#367=DIRECTION('center_axis',(0.,-1.,0.));
#368=DIRECTION('ref_axis',(0.,0.,-1.));
#369=DIRECTION('center_axis',(0.,0.,-1.));
#370=DIRECTION('ref_axis',(0.,1.,0.));
#371=DIRECTION('center_axis',(0.,-1.,0.));
#372=DIRECTION('ref_axis',(0.,0.,-1.));
#373=DIRECTION('center_axis',(0.,0.,-1.));
#374=DIRECTION('ref_axis',(0.,1.,0.));
#375=DIRECTION('center_axis',(0.,0.,1.));
#376=DIRECTION('ref_axis',(0.925264915064908,0.379321548227792,0.));
#377=DIRECTION('',(0.,0.,1.));
#378=DIRECTION('',(0.,0.,1.));
#379=DIRECTION('center_axis',(0.,0.,1.));
#380=DIRECTION('ref_axis',(0.925264915064908,0.379321548227792,0.));
#381=DIRECTION('',(0.,0.,1.));
#382=DIRECTION('center_axis',(0.,0.,-1.));
#383=DIRECTION('ref_axis',(0.925264915064908,0.379321548227792,0.));
#384=DIRECTION('',(0.,0.,1.));
#385=DIRECTION('center_axis',(0.,1.,0.));
#386=DIRECTION('ref_axis',(-1.,0.,0.));
#387=DIRECTION('',(0.,0.,1.));
#388=DIRECTION('center_axis',(0.,-1.,0.));
#389=DIRECTION('ref_axis',(1.,0.,0.));
#390=DIRECTION('center_axis',(0.,1.,0.));
#391=DIRECTION('ref_axis',(1.,0.,0.));
#392=DIRECTION('',(0.,-1.,0.));
#393=DIRECTION('center_axis',(0.,1.,0.));
#394=DIRECTION('ref_axis',(1.,0.,0.));
#395=DIRECTION('center_axis',(0.,-1.,0.));
#396=DIRECTION('ref_axis',(1.,0.,0.));
#397=DIRECTION('center_axis',(0.,1.,0.));
#398=DIRECTION('ref_axis',(-1.,0.,0.));
#399=DIRECTION('',(0.,0.,1.));
#400=DIRECTION('',(-1.,0.,0.));
#401=DIRECTION('center_axis',(0.,0.,1.));
#402=DIRECTION('ref_axis',(1.,0.,0.));
#403=DIRECTION('',(-1.,-1.34840617207285E-15,0.));
#404=DIRECTION('center_axis',(0.,0.,-1.));
#405=DIRECTION('ref_axis',(-0.591931581731574,0.805988214894459,0.));
#406=DIRECTION('',(1.,0.,0.));
#407=DIRECTION('',(-1.,1.34840617207285E-15,0.));
#408=DIRECTION('',(-6.9388939039072E-16,-1.,0.));
#409=DIRECTION('',(-1.,0.,0.));
#410=DIRECTION('',(-6.9388939039072E-16,1.,0.));
#411=DIRECTION('center_axis',(0.,0.,1.));
#412=DIRECTION('ref_axis',(-0.591931581731574,0.805988214894459,0.));
#413=DIRECTION('',(0.,0.,1.));
#414=DIRECTION('',(0.,0.,-1.));
#415=DIRECTION('center_axis',(0.,0.,1.));
#416=DIRECTION('ref_axis',(-0.591931581731574,0.805988214894459,0.));
#417=DIRECTION('center_axis',(0.,1.,0.));
#418=DIRECTION('ref_axis',(-1.,0.,0.));
#419=DIRECTION('center_axis',(-1.34840617207285E-15,-1.,0.));
#420=DIRECTION('ref_axis',(1.,-1.34840617207285E-15,0.));
#421=DIRECTION('',(1.,-1.34840617207285E-15,0.));
#422=DIRECTION('',(0.,0.,1.));
#423=DIRECTION('center_axis',(1.,-6.9388939039072E-16,0.));
#424=DIRECTION('ref_axis',(6.9388939039072E-16,1.,0.));
#425=DIRECTION('',(6.9388939039072E-16,1.,0.));
#426=DIRECTION('',(0.,0.,1.));
#427=DIRECTION('center_axis',(0.,-1.,0.));
#428=DIRECTION('ref_axis',(1.,0.,0.));
#429=DIRECTION('',(1.,0.,0.));
#430=DIRECTION('',(0.,0.,1.));
#431=DIRECTION('center_axis',(-1.,-6.9388939039072E-16,0.));
#432=DIRECTION('ref_axis',(6.9388939039072E-16,-1.,0.));
#433=DIRECTION('',(6.9388939039072E-16,-1.,0.));
#434=DIRECTION('',(0.,0.,1.));
#435=DIRECTION('center_axis',(1.34840617207285E-15,-1.,0.));
#436=DIRECTION('ref_axis',(1.,1.34840617207285E-15,0.));
#437=DIRECTION('',(1.,1.34840617207285E-15,0.));
#438=DIRECTION('center_axis',(0.,0.,1.));
#439=DIRECTION('ref_axis',(1.,0.,0.));
#440=DIRECTION('center_axis',(1.,0.,0.));
#441=DIRECTION('ref_axis',(0.,-1.,0.));
#442=DIRECTION('center_axis',(0.,0.,1.));
#443=DIRECTION('ref_axis',(0.,1.,0.));
#444=CARTESIAN_POINT('',(0.,0.,0.));
#445=CARTESIAN_POINT('Origin',(0.,5.6,-6.));
#446=CARTESIAN_POINT('',(-2.,6.4,-4.73114224595505));
#447=CARTESIAN_POINT('',(-2.45938793715605,6.04878834050285,-6.));
#448=CARTESIAN_POINT('Ctrl Pts',(-2.,6.4,-4.73114224595505));
#449=CARTESIAN_POINT('Ctrl Pts',(-2.03569957312511,6.37378162062846,-4.77088227401749));
#450=CARTESIAN_POINT('Ctrl Pts',(-2.06894290002886,6.34912135860188,-4.81200097670141));
#451=CARTESIAN_POINT('Ctrl Pts',(-2.20822315673964,6.24506156246811,-5.0008774901971));
#452=CARTESIAN_POINT('Ctrl Pts',(-2.30309908473333,6.17170679519793,-5.18452491792292));
#453=CARTESIAN_POINT('Ctrl Pts',(-2.42864970148003,6.07344586866319,-5.583318706671));
#454=CARTESIAN_POINT('Ctrl Pts',(-2.45938793715605,6.04878834050285,-5.79850628066903));
#455=CARTESIAN_POINT('Ctrl Pts',(-2.45938793715605,6.04878834050285,-6.));
#456=CARTESIAN_POINT('',(2.,6.4,-4.73114224595505));
#457=CARTESIAN_POINT('Origin',(0.,6.4,-6.));
#458=CARTESIAN_POINT('',(2.45938793715605,6.04878834050285,-6.));
#459=CARTESIAN_POINT('Ctrl Pts',(2.45938793715605,6.04878834050285,-6.));
#460=CARTESIAN_POINT('Ctrl Pts',(2.45938793715605,6.04878834050285,-5.79850628066903));
#461=CARTESIAN_POINT('Ctrl Pts',(2.42864970148003,6.07344586866318,-5.583318706671));
#462=CARTESIAN_POINT('Ctrl Pts',(2.30309908473333,6.17170679519792,-5.18452491792292));
#463=CARTESIAN_POINT('Ctrl Pts',(2.20822315673964,6.24506156246811,-5.0008774901971));
#464=CARTESIAN_POINT('Ctrl Pts',(2.06894290002885,6.34912135860188,-4.81200097670141));
#465=CARTESIAN_POINT('Ctrl Pts',(2.03569957312511,6.37378162062846,-4.77088227401749));
#466=CARTESIAN_POINT('Ctrl Pts',(2.,6.4,-4.73114224595505));
#467=CARTESIAN_POINT('',(2.5,5.6,-6.));
#468=CARTESIAN_POINT('Origin',(0.,5.6,-6.));
#469=CARTESIAN_POINT('',(2.,6.4,-7.26885775404495));
#470=CARTESIAN_POINT('Ctrl Pts',(2.,6.4,-7.26885775404496));
#471=CARTESIAN_POINT('Ctrl Pts',(2.03569957312511,6.37378162062846,-7.22911772598251));
#472=CARTESIAN_POINT('Ctrl Pts',(2.06894290002885,6.34912135860188,-7.18799902329859));
#473=CARTESIAN_POINT('Ctrl Pts',(2.20822315673964,6.24506156246811,-6.9991225098029));
#474=CARTESIAN_POINT('Ctrl Pts',(2.30309908473333,6.17170679519792,-6.81547508207708));
#475=CARTESIAN_POINT('Ctrl Pts',(2.42864970148003,6.07344586866318,-6.416681293329));
#476=CARTESIAN_POINT('Ctrl Pts',(2.45938793715605,6.04878834050285,-6.20149371933097));
#477=CARTESIAN_POINT('Ctrl Pts',(2.45938793715605,6.04878834050285,-6.));
#478=CARTESIAN_POINT('',(-2.,6.4,-7.26885775404495));
#479=CARTESIAN_POINT('Origin',(0.,6.4,-6.));
#480=CARTESIAN_POINT('Ctrl Pts',(-2.45938793715605,6.04878834050285,-6.));
#481=CARTESIAN_POINT('Ctrl Pts',(-2.45938793715605,6.04878834050285,-6.20149371933097));
#482=CARTESIAN_POINT('Ctrl Pts',(-2.42864970148003,6.07344586866319,-6.416681293329));
#483=CARTESIAN_POINT('Ctrl Pts',(-2.30309908473333,6.17170679519793,-6.81547508207708));
#484=CARTESIAN_POINT('Ctrl Pts',(-2.20822315673964,6.24506156246811,-6.9991225098029));
#485=CARTESIAN_POINT('Ctrl Pts',(-2.06894290002886,6.34912135860188,-7.18799902329859));
#486=CARTESIAN_POINT('Ctrl Pts',(-2.03569957312511,6.37378162062846,-7.22911772598251));
#487=CARTESIAN_POINT('Ctrl Pts',(-2.,6.4,-7.26885775404495));
#488=CARTESIAN_POINT('',(-2.5,5.6,-6.));
#489=CARTESIAN_POINT('Origin',(0.,5.6,-6.));
#490=CARTESIAN_POINT('Origin',(-6.87897372597361,-5.68982322341688,0.));
#491=CARTESIAN_POINT('',(2.,6.4,2.97799521074994));
#492=CARTESIAN_POINT('',(2.,6.4,0.));
#493=CARTESIAN_POINT('',(2.,6.4,4.02200478925006));
#494=CARTESIAN_POINT('Ctrl Pts',(2.,6.4,2.97799521074994));
#495=CARTESIAN_POINT('Ctrl Pts',(2.04477454632516,6.36711680451675,3.14954362274627));
#496=CARTESIAN_POINT('Ctrl Pts',(2.067,6.3505070915782,3.32749825990694));
#497=CARTESIAN_POINT('Ctrl Pts',(2.067,6.3505070915782,3.67250174009306));
#498=CARTESIAN_POINT('Ctrl Pts',(2.04477454632516,6.36711680451675,3.85045637725373));
#499=CARTESIAN_POINT('Ctrl Pts',(2.,6.4,4.02200478925006));
#500=CARTESIAN_POINT('',(2.,6.4,11.));
#501=CARTESIAN_POINT('',(2.,6.4,0.));
#502=CARTESIAN_POINT('',(7.,4.48899944359727E-16,11.));
#503=CARTESIAN_POINT('Origin',(-6.87897372597361,-5.68982322341688,11.));
#504=CARTESIAN_POINT('',(7.,4.48899944359727E-16,-11.));
#505=CARTESIAN_POINT('',(7.,4.48899944359727E-16,0.));
#506=CARTESIAN_POINT('',(2.,6.4,-11.));
#507=CARTESIAN_POINT('Origin',(-6.87897372597361,-5.68982322341688,-11.));
#508=CARTESIAN_POINT('',(2.,6.4,0.));
#509=CARTESIAN_POINT('Origin',(2.,6.4,0.));
#510=CARTESIAN_POINT('',(-2.,6.4,2.97799521074993));
#511=CARTESIAN_POINT('',(-2.,6.4,0.));
#512=CARTESIAN_POINT('Origin',(0.,6.4,3.5));
#513=CARTESIAN_POINT('Origin',(0.,-20.6525414702575,3.5));
#514=CARTESIAN_POINT('',(-2.067,6.3505070915782,3.5));
#515=CARTESIAN_POINT('Ctrl Pts',(-2.067,6.3505070915782,3.5));
#516=CARTESIAN_POINT('Ctrl Pts',(-2.067,6.3505070915782,3.32749825990695));
#517=CARTESIAN_POINT('Ctrl Pts',(-2.04477454632516,6.36711680451675,3.14954362274625));
#518=CARTESIAN_POINT('Ctrl Pts',(-2.,6.4,2.97799521074993));
#519=CARTESIAN_POINT('',(-2.067,-0.799999999999998,3.5));
#520=CARTESIAN_POINT('',(-2.067,-20.6525414702575,3.5));
#521=CARTESIAN_POINT('Origin',(0.,-0.799999999999998,3.5));
#522=CARTESIAN_POINT('',(-2.,6.4,4.02200478925007));
#523=CARTESIAN_POINT('Ctrl Pts',(-2.,6.4,4.02200478925007));
#524=CARTESIAN_POINT('Ctrl Pts',(-2.04477454571333,6.36711680496609,3.85045637959791));
#525=CARTESIAN_POINT('Ctrl Pts',(-2.067,6.3505070915782,3.672501737718));
#526=CARTESIAN_POINT('Ctrl Pts',(-2.067,6.3505070915782,3.5));
#527=CARTESIAN_POINT('Origin',(0.,6.4,3.5));
#528=CARTESIAN_POINT('Origin',(2.,6.4,0.));
#529=CARTESIAN_POINT('',(-2.,6.4,11.));
#530=CARTESIAN_POINT('',(-2.,6.4,0.));
#531=CARTESIAN_POINT('',(2.,6.4,11.));
#532=CARTESIAN_POINT('Origin',(0.,2.8,-11.));
#533=CARTESIAN_POINT('',(-3.90000000000001,4.62895907778554E-15,-11.));
#534=CARTESIAN_POINT('',(-7.,4.48899944359727E-16,-11.));
#535=CARTESIAN_POINT('',(-7.,4.48899944359727E-16,-11.));
#536=CARTESIAN_POINT('',(-2.,6.4,-11.));
#537=CARTESIAN_POINT('Origin',(6.87897372597361,-5.68982322341688,-11.));
#538=CARTESIAN_POINT('',(2.,6.4,-11.));
#539=CARTESIAN_POINT('',(3.90000000000001,4.62895907778554E-15,-11.));
#540=CARTESIAN_POINT('',(3.90000000000001,4.62895907778554E-15,-11.));
#541=CARTESIAN_POINT('',(3.9,-0.799999999999999,-11.));
#542=CARTESIAN_POINT('',(3.90000000000001,-0.799999999999999,-11.));
#543=CARTESIAN_POINT('',(-3.90000000000001,-0.799999999999999,-11.));
#544=CARTESIAN_POINT('',(-3.90000000000001,-0.799999999999999,-11.));
#545=CARTESIAN_POINT('',(-3.90000000000001,4.62895907778554E-15,-11.));
#546=CARTESIAN_POINT('Origin',(6.87897372597361,-5.68982322341688,0.));
#547=CARTESIAN_POINT('',(-2.,6.4,0.));
#548=CARTESIAN_POINT('',(-7.,4.48899944359727E-16,11.));
#549=CARTESIAN_POINT('',(-7.,4.48899944359727E-16,0.));
#550=CARTESIAN_POINT('Origin',(6.87897372597361,-5.68982322341688,11.));
#551=CARTESIAN_POINT('Origin',(2.,6.4,0.));
#552=CARTESIAN_POINT('Origin',(3.90000000000001,4.62895907778554E-15,0.));
#553=CARTESIAN_POINT('',(3.90000000000001,4.62895907778554E-15,11.));
#554=CARTESIAN_POINT('',(3.90000000000001,4.62895907778554E-15,11.));
#555=CARTESIAN_POINT('',(3.90000000000001,4.62895907778554E-15,0.));
#556=CARTESIAN_POINT('Origin',(3.90000000000001,-0.799999999999999,0.));
#557=CARTESIAN_POINT('',(3.9,-0.799999999999999,11.));
#558=CARTESIAN_POINT('',(3.90000000000001,-0.799999999999999,11.));
#559=CARTESIAN_POINT('',(3.90000000000001,-0.799999999999999,0.));
#560=CARTESIAN_POINT('Origin',(-3.90000000000001,-0.799999999999999,0.));
#561=CARTESIAN_POINT('',(-3.90000000000001,-0.799999999999999,11.));
#562=CARTESIAN_POINT('',(-3.90000000000001,-0.799999999999999,11.));
#563=CARTESIAN_POINT('',(-3.90000000000001,-0.799999999999999,0.));
#564=CARTESIAN_POINT('Origin',(-3.90000000000001,4.62895907778554E-15,0.));
#565=CARTESIAN_POINT('',(-3.90000000000001,4.62895907778554E-15,11.));
#566=CARTESIAN_POINT('',(-3.90000000000001,4.62895907778554E-15,11.));
#567=CARTESIAN_POINT('',(-3.90000000000001,4.62895907778554E-15,0.));
#568=CARTESIAN_POINT('Origin',(-7.,4.48899944359727E-16,0.));
#569=CARTESIAN_POINT('',(-7.,4.48899944359727E-16,11.));
#570=CARTESIAN_POINT('Origin',(0.,2.8,11.));
#571=CARTESIAN_POINT('Origin',(0.,5.6,-6.));
#572=CARTESIAN_POINT('',(2.5,5.6,-6.));
#573=CARTESIAN_POINT('',(-2.5,5.6,-6.));
#574=CARTESIAN_POINT('Origin',(0.,5.6,-6.));
#575=UNCERTAINTY_MEASURE_WITH_UNIT(LENGTH_MEASURE(0.01),#579,
'DISTANCE_ACCURACY_VALUE',
'Maximum model space distance between geometric entities at asserted c
onnectivities');
#576=UNCERTAINTY_MEASURE_WITH_UNIT(LENGTH_MEASURE(0.01),#579,
'DISTANCE_ACCURACY_VALUE',
'Maximum model space distance between geometric entities at asserted c
onnectivities');
#577=(
GEOMETRIC_REPRESENTATION_CONTEXT(3)
GLOBAL_UNCERTAINTY_ASSIGNED_CONTEXT((#575))
GLOBAL_UNIT_ASSIGNED_CONTEXT((#579,#581,#582))
REPRESENTATION_CONTEXT('','3D')
);
#578=(
GEOMETRIC_REPRESENTATION_CONTEXT(3)
GLOBAL_UNCERTAINTY_ASSIGNED_CONTEXT((#576))
GLOBAL_UNIT_ASSIGNED_CONTEXT((#579,#581,#582))
REPRESENTATION_CONTEXT('','3D')
);
#579=(
LENGTH_UNIT()
NAMED_UNIT(*)
SI_UNIT(.MILLI.,.METRE.)
);
#580=(
LENGTH_UNIT()
NAMED_UNIT(*)
SI_UNIT(.CENTI.,.METRE.)
);
#581=(
NAMED_UNIT(*)
PLANE_ANGLE_UNIT()
SI_UNIT($,.RADIAN.)
);
#582=(
NAMED_UNIT(*)
SI_UNIT($,.STERADIAN.)
SOLID_ANGLE_UNIT()
);
#583=SHAPE_DEFINITION_REPRESENTATION(#584,#585);
#584=PRODUCT_DEFINITION_SHAPE('',$,#587);
#585=SHAPE_REPRESENTATION('',(#335),#577);
#586=PRODUCT_DEFINITION_CONTEXT('part definition',#591,'design');
#587=PRODUCT_DEFINITION('210205','210205',#588,#586);
#588=PRODUCT_DEFINITION_FORMATION('',$,#593);
#589=PRODUCT_RELATED_PRODUCT_CATEGORY('210205','210205',(#593));
#590=APPLICATION_PROTOCOL_DEFINITION('international standard',
'automotive_design',2009,#591);
#591=APPLICATION_CONTEXT(
'Core Data for Automotive Mechanical Design Process');
#592=PRODUCT_CONTEXT('part definition',#591,'mechanical');
#593=PRODUCT('210205','210205',
'Matice M5 s kuli\X2\010D\X0\kou pro serii 40 dr\X\E1\X2\017E\X0\ka 8,
 \X2\0159\X0\ada 17',(#592));
#594=PRESENTATION_STYLE_ASSIGNMENT((#595));
#595=SURFACE_STYLE_USAGE(.BOTH.,#598);
#596=SURFACE_STYLE_RENDERING_WITH_PROPERTIES($,#602,(#597));
#597=SURFACE_STYLE_TRANSPARENT(0.);
#598=SURFACE_SIDE_STYLE('',(#599,#596));
#599=SURFACE_STYLE_FILL_AREA(#600);
#600=FILL_AREA_STYLE('',(#601));
#601=FILL_AREA_STYLE_COLOUR('',#602);
#602=COLOUR_RGB('',0.87843137254902,0.874509803921569,0.858823529411765);
ENDSEC;
END-ISO-10303-21;
